Log in

One click and you are in

Login with Facebook Login with Google

Why sign up and log in

Guitar Tabs Explorer
The All American Rejects bass tabs for Kiss yourself goodbye

Kiss Yourself Goodbye bass tab by The All American Rejects

The All American Rejects bass tabs for Kiss yourself goodbye

Bass tabs

Intro
G--------|------|
D--------|------|
A-----x2-|-2----|
E-2-4----|----2-|
Verse
G-------------------------------------|
D-------------------------------------|
A-------------------22222222----------|
E-44444444-00000000----------22222222-|


Pre Chorus 1
G-------------|
D-------4~-2~-|
A----2~-------|
E-4~----------|

G-------------------------------|
D-------------------------------|
A-------------------------------|
E-44444444-22222222-00000000-22-|


Chorus
G-------------------------------------|
D-------------------------------------|
A----------22222222-44444444-77777777-|
E-44444444----------------------------|


Verse x2

Pre Chorus 2
G-----------------|
D-------4~-2-4----|
A----2~-----------|
E-4~-----------0~-|

G-------------------------------|
D----------44444444-22222222-44-|
A-------------------------------|
E-44444444----------------------|


Chorus x2


Bridge
G-----------------------------------|
D-----------------------------------|
A-------------------222222----------|
E-444444-2-000000----------4-222222-|

G-------------------------------------|
D-------------------------------------|
A-------------------------------------|
E-00000000-22222222-44444444-66666666-|

G----------------------|
D--22222222-44444444-6-|
A----------------------|
E----------------------|

G-------------------------------------|
D-------------------------------------|
A-------------------------------------|
E-44444444-22222222-00000000-22222222-|


Chorus x2


Outro
G-------------------------------------|
D-------------------------------------|
A-------------------222222------------| x2
E-444444-2-00000000--------4-22222222-|

G---------------|
D---------------|
A----------2----|

Almost there ...

Sign in to get your own page with links to favourite songs and more. You are just one click away...

Login with Facebook Login with Google