Log in

One click and you are in

Login with Facebook Login with Google

Why sign up and log in

Guitar Tabs Explorer
The All American Rejects bass tabs for Fallin apart

Fallin Apart bass tab by The All American Rejects

The All American Rejects bass tabs for Fallin apart

Bass tabs

Fallin' Apart Bass Tab
    All American Rejects
    When The World Comes Down


Intro/verse - Listen for the rhythm,it's hard to tab out. 0:03- 0:33
G|---------------------------------------------------------------------------|
D|---------------------------------------------------------------------------|
A|----3-----3-5------5----5-----5-3------------------------------------------|
E|------------------------------------5-----5-3------------------------------|

    Pre chorus (First time)  0:34 - 0:44
G|---------------------------------------------------------------------------|
D|---------------------------------------------------------------------------|
A|-----------5-5-5--------------3-3-3-3--------------------------------------|
E|---5-5-5-----------5-5-5--12\----------------------------------------------|
     Chorus  0:45 - 1:00
G|---------------------------------------------------------------------------|
D|---------------------------------------------------------------------------|
A|------------------------33333333-------------------------------------------|
E|---55555555--11111111--------------3333333-4-------------------------------|

G|---------------------------------------------------------------------------|
D|---------------------------------------------------------------------------|
A|-------------------------------------33333333------------------------------|
E|---55555555--1-1-/13-13-15-15-13-13-------------3333333-4------------------|

   Prechorus, 2nd time 1:22- 1:34
G|---------------------------------------------------------------------------|
D|---------------------------------------------------------------------------|
A|---0-0-0-/12------5-5-5--17-19-17-15------0-0-0-/12-------3-3-3--/15-------|
E|---------------------------------------------------------------------------|

  solo 1:53 - 2:09  (what I tabbed out comes in at about 2:04
After playing the verse for a while, the bass comes in with something like (I can't
out the rest.)
G|---------------------------------------------------------------------------|
D|---------------------------------------------------------------------------|
A|------------15/17h19p17----------------------------------------------------|
E|------15h17----------------------------------------------------------------|

   Bridge 2:24
G|---------------------------------------------------------------------------|
D|---------------------------------------------------------------------------|
A|-------------------------------------------------------3-3-3-3-3-3-3h5p3---|
E|--1-1-1-1-1-1-1-1--3-3-3-3-3-3-3-3--5-5-5-5-5-5-5-5------------------------|

Almost there ...

Sign in to get your own page with links to favourite songs and more. You are just one click away...

Login with Facebook Login with Google