Log in

One click and you are in

Login with Facebook Login with Google

Why sign up and log in

Guitar Tabs Explorer
The All American Rejects bass tabs for Dirty little secret

Dirty Little Secret bass tab by The All American Rejects

The All American Rejects bass tabs for Dirty little secret

Bass tabs

Intro(come in on third time it's played)
G|-------------------|
D|--8-8-5-5-6-5-6-5-6|
A|-6-6---------------| (x2)
E|-------------------|

PRE VERSE
G|---------------|
D|--5-5-6-5-6-5-6|
A|-4-------------|
E|---------------|
VERSE
G|------------------------------------|
D|------------------------------------|
A|-66666666-11111111-44444444-22222222|
E|------------------------------------|

PRE-CHOROUS
G|---------------------------------------|
D|---------------------------------------|
A|-3-33-3-33---------6-66-6-66-88888888--|
E|-----------3-33-333--------------------|

CHOROUS
G|----------------------------------|
D|----------------------------------|
A|-66666666--------33333333-11111111| (X2)
E|---------66666666-----------------|

PRE VERSE
G-----------|
D-----------|
A-666666666~|
E-----------|

VERSE 2 IS THE SAME AS FIRST VERSE SO JUST LOOK AT THE FIRST VERSE
PRE CHOROUS IS THE SAME AS THE OTHER PRE-CHOROUS SO JUST LOOK AT THAT
CHOROUS IS SAME AS THE OTHER CHOROUS SO JUST LOOK AT THAT


BRIDGE
G|----------------------------------|
D|----------------------------------|
A|-33333333--------66666666-88888888|
E|---------33333333-----------------|


SOLO
G|-------------------------------------------------------------------------|
D|--8-8-------------8-8------------------10-10-------------10-10-----------|
A|-6-6-5-5-6-5-6-5-6-6--5-5-6-5-6-5-6-5-8--8--8-7-8-7-8-7-8--8--8-7-8-7-8-7|
E|-------------------------------------------------------------------------|

PRE-CHOROUS
G|----------------------------------|
D|----------------------------------|
A|-66666666--------33333333---------|
E|---------66666666---------11111111|

CHOROUS IS THE SAME AS THE OTHER CHOROUS SO PLAY THAT

AFTER CHROUS
G|----------|
D|----------|
A|-66666666~|
E|----------|

Other versions of Dirty Little Secret

Dirty little secretBass tabs

Almost there ...

Sign in to get your own page with links to favourite songs and more. You are just one click away...

Login with Facebook Login with Google