Log in

One click and you are in

Login with Facebook Login with Google

Why sign up and log in

Guitar Tabs Explorer
The All American Rejects chords for Dance inside

Guitar chords with lyrics

Album: Move Along

Tuning: Standard (ebgDAE)

ummm i tried my best soo...
Intro
A chord diagramBB x2


Verse (Guitar doesn't play)
you don't have to move, you don't have to speak
lips for biting.
you're staring me down, a glance makes me weak
eyes for striking
A chord diagramBB
A chord diagramBsusBsus
now im twisting up when i'm twisted with you
A chord diagramBB
brush so lightly
A chord diagramBsusBsus
and time trickles down, and i'm breathing for two
A chord diagramBB
squeeze so tightly.
A chord diagramBB
i'll be fine, you'll be fine.
this moment seems so long
A chord diagramBB
don't waste now, precious time
we'll dance inside the song


[Chorus]
A chord diagramBB
what makes the one to shake you down?
               A chord diagramBB
each touch belongs to each new sound
A chord diagramBB
say now you want to shake me too
               A chord diagramBB
move down to me, slip into you

Verse
A chord diagramBsusBsus
she sinks in my mind as she sheds through her skin
A chord diagramBB
touch like taste like fire
A chord diagramBsusBsus
hands to know what i no longer defend
A chord diagramBB
hands to fuel desire
A chord diagramBB
i'll be fine, you'll be fine
this moment seems so long
A chord diagramBB
don't waste now, precious time
we'll dance inside the song


[Chorus]
A chord diagramBB
A chord diagramA augmentedA

During Ooh Ahs
A chord diagramBB

A chord diagramBB
and i'll be fine, you'll be fine
         A chord diagramA augmentedA
is this fine? i'm not fine
          A chord diagramBB
give me pieces, give me things to stay awake (stay awake)


[Chorus x2]


Solo (played during ooh ahs)
e-0--2--4---0--2--4---0--2--4---5--4--2-----------|
b-------------------------------------------------|
g-------------------------------------------------|
D-------------------------------------------------|
A-------------------------------------------------|
E-------------------------------------------------|

e-2--4--5--4--2---------14---4--5--2--0------------|
b----------------2---------------------------------|
g--------------------------------------------------|
D--------------------------------------------------|
A--------------------------------------------------|
E--------------------------------------------------|


e-------------------------------------------------|
b-2--4-5--2--4-5----------------------------------|
g-----------------2~------------------------------|
D-------------------------------------------------|
A-------------------------------------------------|
E-------------------------------------------------|

Other versions of Dance Inside

Dance inside (Ver. 2)Chords
Dance insideTabs

Almost there ...

Sign in to get your own page with links to favourite songs and more. You are just one click away...

Login with Facebook Login with Google