Log in

One click and you are in

Login with Facebook Login with Google

Why sign up and log in

Guitar Tabs Explorer
The All American Rejects bass tabs for Dance inside

Dance Inside bass tab - The All American Rejects

The All American Rejects bass tabs for Dance inside

Bass tabs

Intro:
G-----------------------------------------------------------------------|
D--------------------22-------------------------------22222222-11111111-|
A----/44444444444444---0000000000000000-222222222222-------------------|
E-----------------------------------------------------------------------|

 Verse 1:
G---------------------------------------------------------------------|
D----------------------------------------------------1111111111111111-|
A-4444444444444444----------------------------------------------------|
E------------------5555555555555555-0000000000000000------------------|
Intro x1

 Verse 2:
G-------------------------------------------|
D--------------------------------11-1-11-1--|
A--44-4-44-4--------------------------------|
E------------55-5-55-5-00-0-00-0------------|

 Pre-chorus:
G---------------------------------------------------|
D---------------------------------------------------|
A---4-4---------2-2-2-2-2-2-2-2-2-2-2-2-2-2-2-2-----| x2
E----------/5-5-------------------------------------|

no bass in the first chorus


(play right after first chorus)

 Verse 3:
G---------------------------------------|
D------------------------------11111111-|
A--/44444444----------------------------|
E------------55555555-00000000----------|

 Pre-chorus x2

 Chorus:
G--------------------------------------|
D----------------------------2222-1111-|
A-44444444-00000000-22222222-----------| x3
E--------------------------------------|

G---------------------------------|
D---------------------------------|
A-44444444-00000000-22222222-0~---|
E---------------------------------|

 Bridge:
G-------------------------------------|
D-------------------------------------|
A--777777776666666644444444------2222-| x2
E---------------------------5555------|

G-----------------------------------|
D-----------------------------------|
A-----------------------------------|
E--22222222444444445555555577777777-|

G-------------------------------|
D-------------------------------|
A-------------------------------|
E-2--2-2--4--4-4--5--5-5--7-7-7-|


Chorus x4

 Ending:
G-----------------------------------------|
D----------------2-22-1-11----------------|
A----4~--0~--2~-------------4~--0~--2~----|

Almost there ...

Sign in to get your own page with links to favourite songs and more. You are just one click away...

Login with Facebook Login with Google