Log in

One click and you are in

Login with Facebook Login with Google

Why sign up and log in

Guitar Tabs Explorer
The All American Rejects bass tabs for Breakin

Bass tabs with lyrics

-----------------------------------------------------------------------
		Breakin’ – The All-American Rejects
-----------------------------------------------------------------------

Tabbed By : Crackerzz
e-mail: evansg4@comcast.net
Tuning: Standard


Intro – No bass


Verse 1 – Starts at 0:14 – Play twice.
G|----------------|----------------|----------------|----------------|
D|----------------|----------------|----------------|----------------|
A|2222222222222222|4444444444444444|----------------|----------------|
E|----------------|----------------|0000000000000000|0000000000000000|
 1 + 2 + 3 + 4 + 1 + 2 + 3 + 4 + 1 + 2 + 3 + 4 + 1 + 2 + 3 + 4 +

G|----------------|----------------|----------------|----------------|
D|----------------|----------------|----------------|----------------|
A|----------------|----------------|----------------|----------------|
E|4444444444444444|2222222222222222|0000000000000000|0000000000000000|
 1 + 2 + 3 + 4 + 1 + 2 + 3 + 4 + 1 + 2 + 3 + 4 + 1 + 2 + 3 + 4 +


Pre-chorus 1 – Starts at 0:44
G|----------------|----------------|----------------|----------------|
D|----------------|----------------|----------------|----------------|
A|----------------|----------------|----------------|----------------|
E|4---4-----------|----------------|2---2-----------|----------------|
 1 + 2 + 3 + 4 + 1 + 2 + 3 + 4 + 1 + 2 + 3 + 4 + 1 + 2 + 3 + 4 +

Chorus – Starts at 0:50 – Play twice.
G|----------------|----------------|----------------|----------------|
D|----------------|----------------|----------------|----------------|
A|----------------|----------------|----------------|----------------|
E|7777777777777777|7777777777777777|6666666666666666|6666666666666666|
 1 + 2 + 3 + 4 + 1 + 2 + 3 + 4 + 1 + 2 + 3 + 4 + 1 + 2 + 3 + 4 +

G|----------------|----------------|----------------|----------------|
D|----------------|----------------|----------------|----------------|
A|----------------|----------------|----------------|----------------|
E|4444444444444444|4444444444444444|0000000000000000|0000000000000000|
 1 + 2 + 3 + 4 + 1 + 2 + 3 + 4 + 1 + 2 + 3 + 4 + 1 + 2 + 3 + 4 +


Verse 2 – Starts at 1:19 - If you really listen to the verse here,
it’s a little different then what I put here, but what I have sounds
fine and is a pretty basic rhythm. Feel free to change it to your
liking.
G|----------------|----------------|----------------|----------------|
D|----------------|----------------|----------------|----------------|
A|------rest------|------rest------|----------------|----------------|
E|----------------|----------------|0000000000000000|0000000000000000|
 1 + 2 + 3 + 4 + 1 + 2 + 3 + 4 + 1 + 2 + 3 + 4 + 1 + 2 + 3 + 4 +

G|----------------|----------------|----------------|----------------|
D|----------------|----------------|----------------|----------------|
A|----------------|----------------|----------------|----------------|
E|4444444444444444|2222222222222222|0000000000000000|0000000000000000|
 1 + 2 + 3 + 4 + 1 + 2 + 3 + 4 + 1 + 2 + 3 + 4 + 1 + 2 + 3 + 4 +

G|----------------|----------------|----------------|----------------|
D|----------------|----------------|----------------|----------------|
A|2222222222222222|4444444444444444|----------------|----------------|
E|----------------|----------------|0000000000000000|0000000000000000|
 1 + 2 + 3 + 4 + 1 + 2 + 3 + 4 + 1 + 2 + 3 + 4 + 1 + 2 + 3 + 4 +

G|----------------|----------------|----------------|----------------|
D|----------------|----------------|----------------|----------------|
A|----------------|----------------|----------------|----------------|
E|4444444444444444|2222222222222222|0000000000000000|0000000000000000|
 1 + 2 + 3 + 4 + 1 + 2 + 3 + 4 + 1 + 2 + 3 + 4 + 1 + 2 + 3 + 4 +


Pre-chorus 2 – Starts at 1:49
G|----------------|----------------|----------------|----------------|
D|----------------|----------------|----------------|----------------|
A|----------------|----------------|----------------|----------------|
E|4---4-----------|----------------|2---2-----------|------0~~~~~~~~~|
 1 + 2 + 3 + 4 + 1 + 2 + 3 + 4 + 1 + 2 + 3 + 4 + 1 + 2 + 3 + 4 +


Chorus – Starts at 1:56 – Play twice.
G|----------------|----------------|----------------|----------------|
D|----------------|----------------|----------------|----------------|
A|----------------|----------------|----------------|----------------|
E|7777777777777777|7777777777777777|6666666666666666|6666666666666666|
 1 + 2 + 3 + 4 + 1 + 2 + 3 + 4 + 1 + 2 + 3 + 4 + 1 + 2 + 3 + 4 +

G|----------------|----------------|----------------|----------------|
D|----------------|----------------|----------------|----------------|
A|----------------|----------------|----------------|----------------|
E|4444444444444444|4444444444444444|0000000000000000|0000000000000000|
 1 + 2 + 3 + 4 + 1 + 2 + 3 + 4 + 1 + 2 + 3 + 4 + 1 + 2 + 3 + 4 +

Interlude – Starts at 2:24 – Play twice.
G|----------------|----------------|----------------|----------------|
D|----------------|----------------|----------------|----------------|
A|----------------|----------------|----------------|----------------|
E|7-----7---------|----2---2-------|4-----4-----2---|----0---0-------|
 1 + 2 + 3 + 4 + 1 + 2 + 3 + 4 + 1 + 2 + 3 + 4 + 1 + 2 + 3 + 4 +


Bridge – Starts at 2:38
G|----------------|----------------|----------------|----------------|
D|----------------|----------------|----------------|----------------|
A|----------------|----------------|----------------|----------------|
E|6-6---6-6---6-6-|--6-6---6-6---6-|7---7-7---7-7---|7-7---7-7---7-6-|
 1 + 2 + 3 + 4 + 1 + 2 + 3 + 4 + 1 + 2 + 3 + 4 + 1 + 2 + 3 + 4 +

G|----------------|----------------|----------------|----------------|
D|----------------|----------------|----------------|----------------|
A|----------------|----------------|----------------|----------------|
E|--6-6---6-6---6-|6---6-6---6-6---|7-7---7-7---7-7~|~~~~~~~~~~~~~~~~|
 1 + 2 + 3 + 4 + 1 + 2 + 3 + 4 + 1 + 2 + 3 + 4 + 1 + 2 + 3 + 4 +

G|----------------|----------------|----------------|
D|----------------|----------------|----------------|
A|----------------|----------------|------rest------|
E|5-5-5-5-5-5-5-5-|5-5-5-5-5-5-5-5-|----------------|
 1 + 2 + 3 + 4 + 1 + 2 + 3 + 4 + 1 + 2 + 3 + 4 +


Chorus – Starts at 2:59 – Play Twice
G|----------------|----------------|----------------|----------------|
D|----------------|----------------|----------------|----------------|
A|----------------|----------------|----------------|----------------|
E|7777777777777777|7777777777777777|6666666666666666|6666666666666666|
 1 + 2 + 3 + 4 + 1 + 2 + 3 + 4 + 1 + 2 + 3 + 4 + 1 + 2 + 3 + 4 +

G|----------------|----------------|----------------|----------------|
D|----------------|----------------|----------------|----------------|
A|----------------|----------------|----------------|----------------|
E|4444444444444444|4444444444444444|0000000000000000|0000000000000000|
 1 + 2 + 3 + 4 + 1 + 2 + 3 + 4 + 1 + 2 + 3 + 4 + 1 + 2 + 3 + 4 +

Interlude 2 – Starts at 3:28
G|----------------|----------------|----------------|----------------|
D|----------------|----------------|----------------|----------------|
A|----------------|----------------|----------------|----------------|
E|7-----7---------|----2---2-------|4-----4-----2---|----0---0-------|
 1 + 2 + 3 + 4 + 1 + 2 + 3 + 4 + 1 + 2 + 3 + 4 + 1 + 2 + 3 + 4 +

G|----------------|----------------|----------------|----------------|
D|----------------|----------------|----------------|----------------|
A|----------------|----------------|----------------|----------------|
E|7-----7---------|----2---2-------|4-----4-----2---|----0---0-------|
 1 + 2 + 3 + 4 + 1 + 2 + 3 + 4 + 1 + 2 + 3 + 4 + 1 + 2 + 3 + 4 +

G|----------------|----------------|----------------|----------------|
D|----------------|----------------|----------------|----------------|
A|----------------|----------------|----------------|----------------|
E|7-----7---------|6---4---2---0---|4-----4-----2---|----0---0-------|
 1 + 2 + 3 + 4 + 1 + 2 + 3 + 4 + 1 + 2 + 3 + 4 + 1 + 2 + 3 + 4 +

G|----------------|----------------|----------------|----------------|
D|----------------|----------------|----------------|----------------|
A|----------------|----------------|----------------|----------------|
E|7-----7---------|6---4---2---0---|4-----4-----2---|----0---0-------|
 1 + 2 + 3 + 4 + 1 + 2 + 3 + 4 + 1 + 2 + 3 + 4 + 1 + 2 + 3 + 4 +


Outro – Starts at 3:57
G|----------------|
D|----------------|
A|----------------|
E|6-6---6-6---6-6-|
 1 + 2 + 3 + 4 +

Hope you all like this tab and it serves you well, I think you’ll find
it accurate for the most part. If it’s confusing to try to read the
rhythms and count with the song, don’t bother with it and just play
the fret positions when it sounds right. My e-mail’s at the top of the
page but it’s evansg4@comcast.net if you want me to add/change/remove
something or maybe want me to tab another song. This is my first tab
so I hope it’s good!

P.S. Rate please!


| ~ let the note ring

Almost there ...

Sign in to get your own page with links to favourite songs and more. You are just one click away...

Login with Facebook Login with Google