Log in

One click and you are in

Login with Facebook Login with Google

Why sign up and log in

Guitar Tabs Explorer
The All American Rejects bass tabs for Believe

Believe bass tab by The All American Rejects

The All American Rejects bass tabs for Believe

Bass tabs

-------------------------------------------------------------------------------
			   Believe - The All-American Rejects
-------------------------------------------------------------------------------

Tabbed By: Beato413

Tuning: Standard
Rate!

I have no clue how close this is, no else has tabbed this so i did.
Intro: Bass comes in at 0:14
G|----------------------------------------------------------------|
D|----------------------------------------------------------------|
A|----------------------------------------------------------------|
E|000000000000000022222222222222225555555555555555000000000000----|


Verse:
G|---------------|
D|---------------| X2
A|-7-7------2-2--|
E|---------------|


Pre-Chorus:
G|-----------------------------------------------|
D|-----------------------------------------------|
A|7777777744444444-------------------------------|
E|------------------2-----2--4-----4--5-----5----|


Chorus:
G|----------------------------------------------------------------|
D|----------------------------------------------------------------| X2
A|----------------------------------------------------------------|
E|000000000000000022222222222222225555555555555555000000000000----|

Verse:
G|------------------------|
D|------------------------| X2
A|-7-7---7-7---2-2---2-2--|
E|------------------------|


Pre-Chorus:
G|-----------------------------------------------|
D|-----------------------------------------------|
A|7777777744444444-------------------------------|
E|------------------2-----2--4-----4--5-----5----|


Chorus:
G|----------------------------------------------------------------|
D|----------------------------------------------------------------| X2
A|----------------------------------------------------------------|
E|000000000000000022222222222222225555555555555555000000000000----|


Bridge: Same as the chorus except no repeat
G|----------------------------------------------------------------|
D|----------------------------------------------------------------|
A|----------------------------------------------------------------|
E|000000000000000022222222222222225555555555555555000000000000----|


Bridge Cont:
G|------------------------------------------------------------------------|
D|------------------------------------------------------------------------|
A|------------------------------------------------------------------------|
E|4--2-----4--2-----2--0-----2--0-----4--2-----4--2----0-0-0-0-0-0-0-0----|


Bridge Cont: Bass comes in at 2:42
         G|-------|
         D|-------|
         A|--7-7--|
         E|-------|


Chorus:
G|----------------------------------------------------------------|
D|----------------------------------------------------------------| X2
A|----------------------------------------------------------------|
E|000000000000000022222222222222225555555555555555000000000000----|


Chorus Outro:
G|-----------------------------|
D|-----------------------------|
A|-----------------------------|
E|5555555555555555000000000----|

Almost there ...

Sign in to get your own page with links to favourite songs and more. You are just one click away...

Login with Facebook Login with Google