Log in

One click and you are in

Login with Facebook Login with Google

Why sign up and log in

Guitar Tabs Explorer
The All American Rejects bass tabs for Another heart calls

Another Heart Calls bass tab - The All American Rejects

The All American Rejects bass tabs for Another heart calls

Bass tabs

-------------------------------------------------------------------------------
			   Another Heart Calls - The All-American Rejects
-------------------------------------------------------------------------------

Tabbed By : Beato413

Tuning: Drop D
Intro: Bass comes in at 0:06
G|--------------------------|
D|--------------------------|
A|--------3------------3----|
D|0---3--------0---3--------|


Verse: 0:19 (Play until the Pre-Chorus {0:58})
G|--------------------------|
D|--------------------------|
A|--------3------------3----|
D|0---3--------0---3--------|


Pre-Chorus: 0:58
G|--------------------------------------------------------------------|
D|--------------------------------------------------------------------|
A|11111111--------333333333333333311111111--------3333333333333333----|
D|--------33333333------------------------33333333--------------------|


Chorus #1: 1:11 (There is nothing to play)
G|---------------------------------------------------------------------|
D|---------------------------------------------------------------------|
A|---------------------------------------------------------------------|
D|---------------------------------------------------------------------|

Verse: 1:32 (Repeat three times)
G|----------------------------------------|
D|----------------------------------------| X3
A|----------------33333333-3333333-333----|
D|0000-0003333-333------------------------|


Pre-Chorus: 1:51 (Those are 15's at the end)
G|-------------------------------------------------------------------------|
D|-------------------------------------------------------------------------|
A|11111111--------333333333333333311111111--------333333333333/15151515----|
D|--------33333333------------------------33333333-------------------------|


Chorus #2: 2:04 (Repeat 6 times)
G|------------------------------------|
D|------------------------------------| X6
A|--------11111111--------33333333----|
D|00000000--------33333333------------|


Bridge: 2:42
G|------------------------------------------------------------------|
D|------------------------------------------------------------------|
A|------------------55555555-33333333-------------------55555555----|
D|55555555-33333333-------------------55555555-33333333-------------|


Pre-Chorus: 2:57
G|----------------------------------------------------|
D|----------------------------------------------------|
A|333333333333333311111111--------3333333333333333----|
D|------------------------33333333--------------------|


Chorus #3: 3:06
G|------------------------------------|
D|------------------------------------| X6
A|--------11111111--------33333333----|
D|00000000--------33333333------------|


Outro: Play until the song fades out
G|------------------------------------|
D|------------------------------------|
A|--------11111111--------33333333----|

Almost there ...

Sign in to get your own page with links to favourite songs and more. You are just one click away...

Login with Facebook Login with Google