Log in

One click and you are in

Login with Facebook Login with Google

Why sign up and log in

Guitar Tabs Explorer
The All American Rejects tabs for 1111 pm

Guitar tabs

Intro
G--------------------------|
D--------------------------|
A--------------------------|
D--1~----66666666-33333333-|

G----------------------------------------------|
D----------------------------------------------|
A--444444444444444-----------------------7-5-0-|
D------------------66666666-33333333-4~--------|

 Verse
G--------------------------------------|
D--------------------------------------|
A--11111111-33333333-44444444-66666666-|
D--------------------------------------|

G--------------------------------------|
D--------------------------------------|
A--11111111-33333333-44444444----------|
D-----------------------------11111111-|

 Pre-Chorus
G-------------------------|
D-------------------------|
A-------------11111-555-7-|
D-44444-66666-------------|

G------------------------------|
D------------------------------|
A-------------11111111---2-3-4-|
D-44444-66666------------------|

 Chorus
G------------------------------------|
D------------------------------------|
A-4444444444444444-------------------| x2
D------------------66666666-33333333-|

G------------------------------------|
D------------------------------------|
A------------------------------------|
D-1111111111111111-66666666-33333333-|

Verse

Pre-Chorus

Chorus


 Bridge
G----------------------------------------------------------|
D----------------------------------------------------------|
A----------------------------------------------------------|
D-4444444444444444-3333333333333333-1111111111111111-1-1-1-|

G--------------------------|
D--------------------------|
A--------------11111-555-7-|
D--44444-66666-------------|

G--------------------------------|
D--------------------------------|
A-------------11111111----2-3-45-|
D-44444-66666--------------------|

 Last Chorus
G----------------------|
D----------------------|
A----------------------|
D---66666666-33333333-|

G------------------------------------|
D------------------------------------|
A-4444444444444444-------------------|
D------------------66666666-33333333-|

G-------------------------------------|
D-------------------------------------|
A-------------------------------------|
D-11111111111111111-66666666-33333333-|

 Ending
G--------------------------------------------------------|
D--------------------------------------------------------|
A----------------------------------------------------4~~-|

Almost there ...

Sign in to get your own page with links to favourite songs and more. You are just one click away...

Login with Facebook Login with Google