Log in

One click and you are in

Login with Facebook Login with Google

Why sign up and log in

Guitar Tabs Explorer
Alkaline Trio tabs for The metro

Guitar tabs

Title: The Metro
Album: N/A

This is an un-released song not on any albums...
It's when Mike was still in the band... I've heard
that Vagrant may release it on a "Before You Were
Punk" comp... but I just got it off Napster...
If you ask me it's a really bad-ass Alkaline Trio
song because it's not like their style... they didn't
write it... The song was originally written by a band
called Berlin... blah blah blah

enjoy, jim

Intro
------------------------------------------------|
------------------------------------------------|
------------------------------------------------|
-9-9-9-9-9-9-9-9-9-9--~--9-9-9-9-9-9-9-9-9-9----|
-9-9-9-9-9-9-9-9-9-9--~--9-9-9-9-9-9-9-9-9-9----|
-7-7-7-7-7-7-7-7-7-7--~--7-7-7-7-7-7-7-7-7-7----|


Verse part:
-------------------------------------------|
-------------------------------------------|
-------------------7-7---------------------|
-----9-9---------------7-7-10-10-9-9-------|
-7-7-----9-9-10-10-------------------------|
-------------------------------------------|

Chorus:
----------------------------------------------------|
--x-------------------------------------------------|
--x-x--------------------------------7-7-7-7-7-7----|
--x-x-x\--7-7-7-7--9-9-9-9--5-5-5-5--x-x-x-x-x-x----|
----x-x\--7-7-7-7--9-9-9-9--5-5-5-5--5-5-5-5-5-5----|
------x\--5-5-5-5--7-7-7-7--3-3-3-3-----------------|

--------------------------------------------|
--------------------------------------------|
--------------------------------------------|
--7-7-7-7--9-9-9-9--5-5-5\4-4-4/5-5-5-------|
--7-7-7-7--9-9-9-9--5-5-5\4-4-4/5-5-5-------|
--5-5-5-5--7-7-7-7--3-3-3-3-3-3-3-3-3-------|

--------------------------------------------|
--------------------------------------------|
-----------------------------7-7-7-7-7-7----|
--7-7-7-7--9-9-9-9--5-5-5-5--x-x-x-x-x-x----|
--7-7-7-7--9-9-9-9--5-5-5-5--5-5-5-5-5-5----|
--5-5-5-5--7-7-7-7--3-3-3-3-----------------|

--------------------------------------------|
--------------------------------------------|
--------------------------------------------|
--7-7-7-7--9-9-9--5-5-7-7--9-9-9-9-9-9-9----|
--7-7-7-7--9-9-9--5-5-7-7--9-9-9-9-9-9-9----|
--5-5-5-5--7-7-7--3-3-5-5--7-7-7-7-7-7-7----|


Post-chorus:
--12-----------------------------------|
------12--13------12------10-----------|
--------------14------12------11--9----|
---------------------------------------|
---------------------------------------|
---------------------------------------|


Bridge:
----------------------------------------------12-----------|
-12----------------------12---------12-----------------12--|
------------14---------------------------------------------|
-----------------------------------------------------------|
-----------------------------------------------------------|
-----------------------------------------------------------|
let all these notes ring^^^^

-12----------------------12-----------------------|
-----12--13------12----------12--13-------12------|
-------------14------12---------------14------12--|
--------------------------------------------------|
--------------------------------------------------|
--------------------------------------------------|

-12-------/19--17--14--15--12----|
-----12--------------------------|
---------------------------------|
---------------------------------|
---------------------------------|
---------------------------------|

Songflow:

Intro

Verse 4x (ending on high A chord diagramE MajorE)

Chorus
Post-chorus 2x

Verse 4x (palm-muted)

Chorus

Bridge

Chorus
Post-chorus 2x

Chorus

Almost there ...

Sign in to get your own page with links to favourite songs and more. You are just one click away...

Login with Facebook Login with Google