Log in

One click and you are in

Login with Facebook Login with Google

Why sign up and log in

Guitar Tabs Explorer
Alkaline Trio tabs for San francisco

Guitar tabs

Title: San Fransisco
Album: Goddamnit


This is a great song, although you just have to hear
it in their live set... they usually close with this song...
It's the BEST

enjoy,
jim

Intro:
--------------------------------------------------|
--------------------------------------------------|
-9-9-9-9--9-9-9--11-11--13-13---8-8-8-8--9-9-9-9--|
-9-9-9-9--x-x-x--x--x---x--x----6-6-6-6--7-7-7-7--|
-7-7-7-7--7-7-7--9--9---11-11---------------------|
--------------------------------------------------|


Pre-Verse:
--------------------------------------------------|
--------------------------------------------------|
-9-9-9-9--9-9-9--11-11--13-13---8-8-8-8--9-9-9-9--|
-9-9-9-9--x-x-x--x--x---x--x----6-6-6-6--7-7-7-7--|
-7-7-7-7--7-7-7--9--9---11-11---------------------|
--------------------------------------------------|

-------------------------------------------------------------|
-------------------------------------------------------------|
-9-9-9-9--9-9-9--11-11--13-13---8-8-8-8--9-9-9-9--11-11-11---|
-9-9-9-9--x-x-x--x--x---x--x----6-6-6-6--7-7-7-7--x--x--x----|
-7-7-7-7--7-7-7--9--9---11-11---------------------9--9--9----|
-------------------------------------------------------------|


Verse:
-------------------------------|
-------------------------------|
-9-----2-----6-------4--2------|
-9-----2-----6-------4--2------|
-7-----0-----4-------2--0------|
-------------------------------|


Verse Fill:
----------------------------------------|
-----------0-1-0------------------------|
-9-9-9-9---2-2-2---6-6-6-6---4-4-4-4----|
-9-9-9-9---2-2-2---6-6-6-6---4-4-4-4----|
-7-7-7-7---0-0-0---4-4-4-4---2-2-2-2----|
----------------------------------------|


Chorus:
-------------------------------------------|
-------------------------------------------|
-9-9-9-9--9-9-9--8-8-8-----------4-4-4-4---|Play 2x then play below riff
-9-9-9-9--x-x-x--x-x-x--6-6-6-6--4-4-4-4---|
-7-7-7-7--7-7-7--6-6-6--6-6-6-6--2-2-2-2---|
------------------------4-4-4-4------------|

---------------------------------------------------------|
---------------------------------------------------------|
-9-9-9-9--9-9-9---6-6-6-6--6-6-6---4-4-4-4--4-4-4---2----|
-9-9-9-9--x-x-x---6-6-6-6--x-x-x---4-4-4-4--x-x-x---2----|
-7-7-7-7--7-7-7---4-4-4-4--4-4-4---2-2-2-2--2-2-2---0----|
---------------------------------------------------------|

Interlude:
-------------------------------------------
-------------------------------------------
-9-9-9-9--8-8-8/9-9-9-8-8-8---9------9\----
-x-x-x-x--x-x-x-x-x-x-x-x-x---9------x-----
-7-7-7-7--6-6-6/7-7-7-6-6-6---7------7\----
-------------------------------------------

-------------------------------|
-------------------------------|
-----------------------2-------|
-----------------------2-------|
-6h7p6h7p6h7p6h7p6h7---0-------|
-------------------------------|


Ending chord
-----------|
-----------|
----9------|
----9------|
----7------|
-----------|


Sonflow:

Intro 2x
Pre-Verse 2x

Verse 3x

Verse Fill 2x

Verse 3x

Chorus
Pre-Verse 2x

Verse 3x
Interlude

Chorus 2x
End on given chord

Questions, comments, corrections... e-mail me at j_bro124@hotmail.com

Almost there ...

Sign in to get your own page with links to favourite songs and more. You are just one click away...

Login with Facebook Login with Google