Log in

One click and you are in

Login with Facebook Login with Google

Why sign up and log in

Guitar Tabs Explorer
Alkaline Trio chords for Hell yes

Guitar chords with lyrics

ALKALINE TRIO - HELL YES

This is my first official Alk3 tab.  I've been a fan for about 3 years now
and, in my opinion, this is the best song they've released since Goddamnit
(please ignore the ridiculous b-side on this 7"... aliens took over their
bodies and made them play "Standard Break From Life").  I tabbed this out
and listed the parts in the order they come in the song- I hope that suits
everyone's fancy.  Please email me with any comments.

INTRO (clean) X1
--------------------------------------------------------------------------------
--------------------------------------------------------------------------------
--------------------------------------------------------------------------------
--9-9-9-9-9-9-9-9-9-9-7-7-6-6-4-4-4-4-4-4-4-4-4-4-9-9-7-7-6-6-4-4---------------
--7-7-7-7-7-7-7-7-0-0-0-0-0-0-0-0-2-2-2-2-2-2-2-2-0-0-0-0-0-0-0-0---------------
--------------------------------------------------------------------------------


INTRO (distorted) X1


VERSE X4 (palm muted)

--------------------------------------------------------------------------------
--------------------------------------------------------------------------------
--------------------------------------------------------------------------------
--9-9-9-9-9-9-9-9-9-9-9-9-9-9-9-9-7-7-7-7-7-7-7-7-7-7-7-7-7-7-7-7---------------
--7-7-7-7-7-7-7-7-7-7-7-7-7-9-9-9-0-0-0-0-0-0-0-0-0-0-0-0-0-0-0-0---------------
--------------------------------------------------------------------------------

On the 4th time around, end on a distorted, unmuted version of this:
(this is the part I'm unsure of- comments welcome)

----------------------------
----------------------------
----------------------------
--9-9-9-9-7-7-7-7-----------
--9-9-9-9-7-7-7-7-----------
--7-7-7-7-5-5-5-5-----------


INTRO X2

VERSE X4


CHORUS X4
("Bless me, dark father...")
--------------------------------------------------------------------------------
--------------------------------------------------------------------------------
--9-9-9-9-9-9-9-9-9-9-9-9-9-9-9-9-6-6-6-6-6-6-6-6-4-4-4-4-4-4-4-4---------------
--9-9-9-9-9-9-9-9-9-9-9-9-9-9-9-9-6-6-6-6-6-6-6-6-4-4-4-4-4-4-4-4---------------
--7-7-7-7-7-7-7-7-7-7-7-7-7-7-7-7-4-4-4-4-4-4-4-4-2-2-2-2-2-2-2-2---------------
--------------------------------------------------------------------------------


INTRO X2

VERSE X4

CHORUS X4


BRIDGE X4
("Whispering sweet nothings")
--------------------------------------------------------------------------------
--------------------------------------------------------------------------------
--------------------------------------------------------------------------------
--2-2-2-2-2-2-2-2-2-2-2-2-2-2-2-2-4-4-4-4-4-4-4-4-4-4-4-4-4-4-4-4---------------
--0-0-0-0-0-0-0-0-0-0-0-0-0-0-0-0-2-2-2-2-2-2-2-2-2-2-2-2-2-2-2-2---------------
--------------------------------------------------------------------------------


INTRO X2

CHORUS X4


ENDING (let ring)

----------------------------------------------------------
----------------------------------------------------------
--2--------------------------1----------------------------
--2--------------------------2----------------------------
--0--------------------------2----------------------------
-----------------------------0----------------------------


comments, corrections, concerns?  e-mail andy at seaxfoamxgreen@yahoo.com

Almost there ...

Sign in to get your own page with links to favourite songs and more. You are just one click away...

Login with Facebook Login with Google