Log in

One click and you are in

Login with Facebook Login with Google

Why sign up and log in

Guitar Tabs Explorer
Alkaline Trio chords for Cringe

Guitar chords

Title: Cringe
Album: Goddamnit

Cringe is the opener off of Goddamnit, and
a great song; simple, quick, to the point...

enjoy,
jim

Intro:
------------------------------------------------------|
------------------------------------------------------|
--------------10-10-10-10----------------10-10-10-10--|
-10-10-10-10--10-10-10-10---10-10-10-10--10-10-10-10--|
-10-10-10-10--7--7--8--8----10-10-10-10--7--7--8--8---|
-8--8--8--8-----------------8--8--8--8----------------|


Verse:
---------------------------------|
---------------------------------|
--------------------10-10-10-10--|
-10-10-10-10-10-10--10-10-10-10--|
-10-10-10-10-10-10--7--7--8--8---|
-8--8--8--8--8--8----------------|


Pre-chorus:
--------------------------------|
-1-1-1-1-0-1-0---0-0-0-0-1-3-1--|
-2-2-2-2-2-2-2---2-2-2-2-2-2-2--|
-2-2-2-2-2-2-2---2-2-2-2-2-2-2--|
-0-0-0-0-0-0-0---0-0-0-0-0-0-0--|
--------------------------------|


Pre-chorus 2:
-------------------|
-------------------|
-------------------|
-3-3-3-3-3-3----5--|
-3-3-3-3-3-3----5--|
-1-1-1-1-1-1----3--|


Chorus:
-----------------------------|
-----------------------------|
-2-2-------------------------|
-2-2----2-2-----3-3-----5-5--|
-0-0----2-2-----3-3-----5-5--|
--------0-0-----1-1-----3-3--|


Interlude:
-------------------------------------------------------|
-------------------------------------------------------|
-x\--5-5-5-5-2-2-2-2--12-12-12-12--10-10-10-9-9-7-7-5--|
-x\--5-5-5-5-2-2-2-2--x--x--x--x---x--x--x--x-x-x-x-x--|
-x\--3-3-3-3-0-0-0-0--10-10-10-10--8--8--8--7-7-5-5-3--|
-------------------------------------------------------|


Chord used for post interlude: (also song ends on this chord)
-----|
-----|
-5---|
-5---|
-3---|
-----|


Songflow:

Intro 2x

Verse 2x

Pre-chorus 1

Intro

Verse

Pre-chorus 1

Pre-chorus 2

Chorus 2x

Intro 2x

Verse 2x

Pre-chorus 1

Verse 2x

Pre-chorus 1
Interlude 2x
Post interlude chord play on-time

Pre-chorus 1

Pre-chorus 2
End with above chord

Questions, comments, corrections e-mail me at: j_bro124@hotmail.com

_________________________________________________________________

Almost there ...

Sign in to get your own page with links to favourite songs and more. You are just one click away...

Login with Facebook Login with Google