Log in

One click and you are in

Login with Facebook Login with Google

Why sign up and log in

Guitar Tabs Explorer
Alkaline Trio bass tabs for Armageddon

Bass tabs

Tabbed by: Jim Price (J_Price@telus.net)

/=slide h=hammer p=pull off

I only tabbed out the parts of the song not there order etc.. Should
be good enough.

Intro:         X3
G|-----------------------| |-----------------------------|
D|----66-99-66-----------| |-----------------------------|
A|-77----------44-XX-----| |-2-2-2-2-2-2-2-2-2-2-2-2-2-2-|
E|--------------------55-| |-----------------------------|
Verse:                            X3
G|-------------------------------------------------------------|
D|--------6-6-6-----------6-6-4---------6h9p6-----6-6-7-7-6-6--|
A|-4--4-4--------4--4-4----------7--7-7-------7-7--------------|
E|-------------------------------------------------------------|


Verse Ending:
G|-------------------------------------------------------------|
D|--------6-6-6-----------6-6-4--------------------------------|
A|-4--4-4--------4--4-4----------7-7-7-7-7-7--9-9-9-9-9-9------|
E|-------------------------------------------------------------|


Chorus:
G|-------------------------------------------------------------
D|-----------------------------9-7-6------6-6------6-6---------
A|--7-7-7-7-7-7-7-7--7-7-7-7-7--------4-4------4-4-------------
E|-------------------------------------------------------------

G|-----------------------------------|
D|-----------------------------------|
A|-----------------------------------|
E|--7-7-7-7-7-7-7-7--5-5-5-5-5-5-5-5-|

 We Sing ...
G|-------------------------------------------------------------|
D|-------------------------------------------------------------|
A|-4-4-4-4-4-4-4-4--2-2-2-2-2-2-2-2--12-12-12-12-12-12-12-12---|
E|-------------------------------------------------------------|

Almost there ...

Sign in to get your own page with links to favourite songs and more. You are just one click away...

Login with Facebook Login with Google