Log in

One click and you are in

Login with Facebook Login with Google

Why sign up and log in

Guitar Tabs Explorer
Alizée bass tabs for Par les paupieres

Bass tabs

Alizée - Par Les Paupiéres

Bass goes silent until 1:02....Then:

|-------------------------|
|-------------------------|
|--------3-3-3------------|
|--5-5-5------3-3-3--1-1-1| x 2

|-------------------------|
|-------------------------|
|---------------3-3-3-----|
|--5-5-5--3-3-3------1-1-1| x 2

These are basically the two main riffs for bass in this song. They appear with varied

Almost there ...

Sign in to get your own page with links to favourite songs and more. You are just one click away...

Login with Facebook Login with Google