Log in

One click and you are in

Login with Facebook Login with Google

Why sign up and log in

Guitar Tabs Explorer
Alizée bass tabs for Mademoiselle juliette acoustic

Mademoiselle Juliette Acoustic bass tab by Alizée

Alizée bass tabs for Mademoiselle juliette acoustic

Bass tabs

Mademoiselle Juliette - Alizée


Verse
|-------------------------------------------------------------|
|-------------------------------------------------------------|
|----------------------------------3-5-3----------------------|
|--5-5-5-5-5-5-5-5-3-5-5-5-5-5-5-5----------------------------|
X 3(But after 3 times you'll end with the first part of the "riff")


Chorus
|--------------------------------------------------------------|
|--------------------------------------------------------------|
|---------222222233333335555555(3------------------------------|
|--5555555-----------------------5-3)--------------------------| X 4

Then:
|--------------------------------------------------------------|
|--------------------------------------------------------------|
|-------2--3--7(you can vary between 5 and 7[D and E])---------|
|--5-----------------------------------------------------------| X 4

Then back to Chorus X 4

Other versions of Mademoiselle Juliette Acoustic

Mademoiselle juliette acoustic (Ver. 2)Bass tabs

Almost there ...

Sign in to get your own page with links to favourite songs and more. You are just one click away...

Login with Facebook Login with Google