Log in

One click and you are in

Login with Facebook Login with Google

Why sign up and log in

Guitar Tabs Explorer
Alien Ant Farm chords for Movies

Guitar chords

Album: Anthology
Transcriber: Jeff Ingram
This file is all my own work.

I included three parts (Guitar 1, 2, and Bass)
Intro/Verse
Gtr. 1 Twice then hold for 2 measures

E-------------------------------------|
B------Palm mute----------------------|
G---99-99999999999999999999999--------|
D---99-99999999999999999999999--------|
A---77-77777777777777777777777--------|
E-------------------------------------|

Gtr. 2 Third Measure:
E-------------------------------------|
B-------------------------------------|
G-------------------------------------|
D-------------------------------------|
A---11-9-7hold--11-9-7hold------------|
E-------------------------------------|

Bass 2x thru then use open A chord diagramE MajorE string patterns till Chorus
E-12~~~~~~~~~~~~~~~~~~~~~~~~~~~~0-----|
Open A chord diagramE MajorE rhythms


Bridge
Gtr.1 (7 measures)                 8th Measure
E----------------------------------|---------|
B----------------------------------|---------|
G----------------------------------|-11------|
G--11*^*^*^*^*^*^*^*^*^*^*^*^*^*^*-|-11------|
D--11*^*^*^*^*^*^*^*^*^*^*^*^*^*^*-|--9------|
A---9*^*^*^*^*^*^*^*^*^*^*^*^*^*^*-|---------|

Gtr.2/Bass (Twice)
E------------------------------------------------|
B------------------------------------------------|
G------------------------------------------------|
D------------------------------------------------|
A------------------------------------------------|
E--9-9-9-9-9-9-12-12-7-7-7-7-7-7-9-9-4-4-4-4-4-4-5-5-7777=-Bass-Riff|

Chorus Gtr.1
E------------------------------------------------|
B------------------------------------------------|
G---9***************-----------------------------|
D---9***************-----------------------------|
A---7***************-11-11-11-11-9-9-9-9-7-7-7-7-|
E------------------------------------------------|


Chorus Gtr.2/Bass
E------------------------------------------------|
B------------------------------------------------|
G------------------------------------------------|
D--7-7-7-7-6-4-4-7-10-2-2-2-2--------------------|
A--7-7-7-7-6-4-4-7-10-2-2-2-2--------------------|
E--5-5-5-5-4-2-2-5--8-0-0-0-0-4-4-4-4-=-Bass-Riff|

Interlude
E-Feedback-----7-(etc. just make up)------(Gtr.2)|
B------------------------------------------------|
G--9----------9---------------------------(Gtr.1)|
D--9----------9----------------------------------|
A--7----------7----------------------------------|
E---0-0--4--5--0-0--4--99999999999---------(Bass)|

After 1st part then to 2nd (Feedback as before from Gtr.1)
E--9-9-9-9-9-9-12-12-7-7-7-7-7-7-9-9-4-4-4-4-4-4-5-5-7777=-Bass-Riff


Outro
Bass
E-9-7-4-0~~~Fade out

Order:

Intro/Verse 4x Vocals come in on 2x thru

Chorus

Verse 2x

Bridge

Chorus
Interlude

Bridge

Chorus 2x

Other versions of Movies

MoviesTabs

Almost there ...

Sign in to get your own page with links to favourite songs and more. You are just one click away...

Login with Facebook Login with Google