Log in

One click and you are in

Login with Facebook Login with Google

Why sign up and log in

Guitar Tabs Explorer
Alien Ant Farm bass tabs for Movies

Bass tabs

MOVIES
Album: ANThology (2001)
Bassist: Tye Zamora

by John

Arranged for 4-String Bass (he probably plays it an
octave lower on his 6-string)
Verse
G---------------------
D-----------2---------
A-11/----22-----------
E-------------(0)-(0)-
The slide from the Ab octave is plucked twice
at the 9th, 7th, 4th and 2nd frets.


Chorus (with pickup from verse)
G---------------------------------------------------------
D----2/66-44-22-------------------------------------------
A-22------------44-3-2------------------7-777-77-2-222-22-
E----------------------5-555-4-2-22-5-8-------------------


Bridge (with pickup from verse)
G---------------------------------------------------------------
D----2/66-44-22-------------------------------------------------
A-22------------4-3-2-44444-777-22222-444-----------------------
E-------------------------------------------44444-555-77777-000-

Post-Chorus Notes
G----------       G------------------------------------------------
D----------       D-----------11-9-----------(11h13)-(16)-(13)-----
A--------4-       A--------4-------11-------------------------(14)-
E-5-4-2----       E-5-4-2-------------12-(0)-----------------------
 After second chorus    After last chorus

Interlude
Follows same chords as bridge (Db-(E)-E-(Db)-Ab-(A)-B) but slower.
Tye's pickup into the last chorus (from right after the A) is:
G--------------------------
D-/66-44-22----------------
A-----------44-22----------
E-----------------44-22-00-

Almost there ...

Sign in to get your own page with links to favourite songs and more. You are just one click away...

Login with Facebook Login with Google