Log in

One click and you are in

Login with Facebook Login with Google

Why sign up and log in

Guitar Tabs Explorer
Alice In Chains bass tabs for Would

Bass tabs with lyrics

"Would"
                by Alice in Chains
            transcriped by Travis Higgins

tuned to Eb, Ab, Db, Gb

  Intro (play with pick)
||--------------------------------------------|---------------------------------
||*-------------------------------------------|---------------------------------
||*-------------------------------------------|---------------------------------
||---0h2--2--2--2--0--0--0--0--2--3--3--3--3--|---------------------------------
        Repeat 6 times
-------------------------------------||-----------------------------------------
------------------------------------*||-----------------------------------------
------------------------------------*||-----------------------------------------
3--0--0--0--0--3--0--0--0--0--0--0---||-----------------------------------------

 For the first and second versus repeat intro bass line 8 times

 Then play the next two measures a total of 6 times
------------------------------------|-------------------------------------------
------------------------------------|-------------------------------------------
-0h2--2--2--2--2--0-----------------|-------------------------------------------
------------------------3--3--0--2--|-------------------------------------------


----------------------------------|
----------------------------------|
--------------------------------------0--|
3--3--3--3--3--3---3--3--3--3-----|


under the guitar solo again play the intro bass line a total of 8 times


outro
|---------------------------------|--------------------
|---------------------------------|--------------------
|---5-----5--5--5--5--5--5--------|--------------------
|-------------------------------0--0--|--------------------


------------------------------------|--------------------------------------|----
------------------------------------|--------------------------------------|----
------------------------------------|--------------------------------------|----
4--4--4--4--4--4--4--4--4--4--4--0--|--3--3--3--3--3--3--3--3--3--3--3--0--|----


-------------------------------------------------|----------------------|-----------------
--------------------------------------------------|---------------------|-----------------
------4--0-----5--2--0--4--0--2--0--4--0--|--5------/5---------|/5---------------
0--0--------0-----------------------------------|----------------------|-----------------


--------------------|-------------------||
--------------------|-------------------||
/5------/5--------|/5-----------------||
--------------------|-------------------||


==      Created with a shareware version of the BUCKET 'O TAB      ==
==              For more information:              ==
==             email: gse@ocsystems.com             ==
==   US Mail: The Bucket, 3176-B5 Summit Square Dr., Oakton, VA 22124   ==

Almost there ...

Sign in to get your own page with links to favourite songs and more. You are just one click away...

Login with Facebook Login with Google