Log in

One click and you are in

Login with Facebook Login with Google

Why sign up and log in

Guitar Tabs Explorer
Alice In Chains bass tabs for Over now

Bass tabs

Song Title: Over Now
----------------------------------------------

Title: over now btab
QuickTab
---------------------------------------------------------------
🏷Legend:
-------
x mute
b bend
r release
h hammer on
p pull off
~ vibrato
/ slide up
\ slide down
^^ tremolo

                                                                                Here's "Over Now" by Alice in Chains.


Verse 1


G---------------------------------------|---------------------------------------|
D---------------------------------------|---------------------------------------|
A---------------------------------------|---------------------------------------|
E-98-7-6-5-4--45-4-4--5-4--0-0---0------|-5-4-3-2-1-0--0-1-0---01-0-------------|


 Verse 2

G---------------------------------------|---------------------------------------|
D---------------------------------------|---------------------------------------|
A---------------------------------------|---------------------------------------|
E---444-44444-444-4-4444-4--------------|--666-666----888-888-8-8-88-88-8

 Pre- Chorus

G---------------------------------------|---------------------------------------|
D---------------------------------------|---------------------------------------|
A---------------------------------------|---------------------------------------|
E-1---------4--------1----------4-------|---------------------------------------|


 Chorus

G---------------------------------------|---------------------------------------|
D---------------------------------------|---------------------------------------|
A--------------------------3---4-4------|-6--6--8---8----10--11-10--11----------|
E-1--1---3-3----4--4--6-----------------|---------------------------------------|


 Cont Chorus (differen't)

G---------------------------------------|---------------------------------------|
D---------------------------------------|---------------------------------------|
A--11-11--1010--88--6-6---4-4--3-3h6--6-|---10-11-10--11------------------------|
E---------------------------------------|---------------------------------------|


 Chorus - (a little differen't)

G---------------------------------------|---------------------------------------|
D---------------------------------------|---------------------------------------|
A---------------------------3---4--4----|-3--3---6-6-h1011-10-------------------|
E-1--1---3-3----4--4--6-----------------|---------------------------------------|


Ending


G---------------------------------------|---------------------------------------|
D---------------------------------------|---------------------------------------|
A---------------------------------------|---------------------------------------|
E-1----4-----1----4-----1-1-1---12h13---|--4----1--1-1---12-h13---1----4--------|

    Transcribed by Screaming Ape

                                I'm not sure this is correct I did it by ear so if you have any corrections or comments send to helge@aracnet.com.

Submitted by: SAM, JIMB, AND UNO. (helge@aracnet.com)

Almost there ...

Sign in to get your own page with links to favourite songs and more. You are just one click away...

Login with Facebook Login with Google