Guitar Tabs Explorer
Alice In Chains tabs for It aint like that (Ver. 2)

It Ain't Like That tab by Alice In Chains (Ver. 2)

Alice In Chains tabs for It aint like that (Ver. 2)

Tabs

It Ain't Like That:

Riff 1:
-0---------|
-0---------|
-1---------| x8
-2---------|
-2---------|
-0---3/43-|
Riff 2:
-----------------|
-----------------|
-----------------| x8
-----------------|
-2-2-3-3-3-5-3-2-|
-0-0-1-1-1-3-1-0-|


Riff 1

Riff 2


Riff 3: on second time through, play 2nd and 3rd measures twice each
---------------------|------------------|-----------------|
---------------------|------------------|-----------------|
---------------------|------------------|-----------------| x2
-5-------7---------2-|------------------|-----------------|
-3---5---5---7-----0-|--2-2-3-3-3-5-3-2-|-2-2-3-3-3-5-3-2-|
-----3-------5---3---|--0-0-1-1-1-3-1-0-|-0-0-1-1-1-3-1-0-|


Riff 1 (x12 instead of x8)

Riff 2

Riff 3


Riff 4: solo


Riff 1 (x12 instead of x8)

Riff 2


Riff 4

Riff 3: on last time through, play 2nd and 3rd measures twice each
---------------------|------------------|-----------------|
---------------------|------------------|-----------------|
---------------------|------------------|-----------------| x4
-5-------7---------2-|------------------|-----------------|
-3---5---5---7-----0-|--2-2-3-3-3-5-3-2-|-2-2-3-3-3-5-3-2-|
-----3-------5---3---|--0-0-1-1-1-3-1-0-|-0-0-1-1-1-3-1-0-|
ⓘ This is the 2nd version of guitar tab for 'It Aint Like That' by Alice In Chains, an alternative metal band formed in 1987 from Seattle, Washington, USA. Alice In Chains is known for their gritty rock/pop music.

Other versions of It Ain't Like That

Other alternative guitar chords and tabs for the song It aint like that by Alice In Chains
It ain't like thatTabs