Guitar Tabs Explorer
Alice In Chains tabs for Hung on a hook

Hung On A Hook tab by Alice In Chains

Alice In Chains tabs for Hung on a hook

Tabs

Intro(Rhythm Guitar):

|------------------------------------|
|-------3------------2---------------|
|------0--0---------0--0-------------| 4x
|-----3----3-------2----2------------|
|---1-------1----0-------0-----------|
|------------------------------------|
Info:After fingering and played 2 of 4 times in the introduction of the song, the guitar solo enters this soil on the ropes 5th and 6th as well:

Lead Guitar:


|---10b'r--8--6--5\3--3b'r--0--/8--6--/9~~-----|
|---10b'r--8--6--5\3--3b'r--2--/8--6--/10~~----|
|----------------------------------------------|
|----------------------------------------------|
|----------------------------------------------|
|----------------------------------------------|


Verse:


|------------------------------------------------------------------------------------------|
|--------------------------------3-2-------------------------------------------2-3~-2------|
|-----------------------------------3-2-------------------------------------2-3------2~~---|
|-----0-2br3r2-----------0-2-3--0------3-2-0-----0-2br3r2----------0-2-3--0----------------|
|---1----------0-0-----1-----------------------1----------0-0----1-------------------------|
|---------------3------------------------------------------3-------------------------------|
Riff Introduction again,but only 2 times now:


|------------------------------------|
|-------3------------2---------------|
|------0--0---------0--0-------------| 2x
|-----3----3-------2----2------------|
|---1-------1----0-------0-----------|
|------------------------------------|


Continue Verse:


|------------------------------------------------------------------------------------------|
|--------------------------------3-2-------------------------------------------2-3~-2------|
|-----------------------------------3-2-------------------------------------2-3------2~~---|
|-----0-2br3r2-----------0-2-3--0------3-2-0-----0-2br3r2----------0-2-3--0----------------|
|---1----------0-0-----1-----------------------1----------0-0----1-------------------------|
|---------------3------------------------------------------3-------------------------------|


Chorus:

Lead Guitar:                                                    Rhythm Guitar:
                      2x                                            2x

|-------------------------------------------------------------|--------------|
|-------------------------------------------------------------|--------------|
|-------------------------------------------------------------|----12b~~-----|
|---5/7-7-7-7--5-5----------------5-7-7-7--5-5----------------|--------------|
|---5/7-7-7-7--5-5----5--7-8-8----5-7-7-7--5-5----5--7-8-8----|--------------|
|---3/5-5-5-5--3-3----------------3-5-5-5--3-3----------------|--------------|


Fourth Lesson:

|----------------------------|
|----------------------------|
|----9-9-9-9--7--10----------| 2x
|----9-9-9-9--7--10----------|
|----7-7-7-7--5--8-----------|
|------------------10-9------|


Info:And now it all again, but on the fourth riff after the chorus, have a simple change in the riff is played 4 times, like this:

Fourth Lesson:

|----------------------------|
|----------------------------|
|----9-9-9-9--7--10----------| 4x
|----9-9-9-9--7--10----------|
|----7-7-7-7--5--8-----------|
|-------------------10-9-----|


Info:And now comes the last riff of the song:

Lead Guitar:      16x                                              Rhythm Guitar:     4x


|----------------------------------------------------------------|------------------------|
|----------------------------------------------------------------|------------------------|
|--------12b'r-12b'r--9b'r9--8b'r-8----7b'r-7b'r-5b'5--2~~-------|----2----2----5----7----|
|----------------------------------------------------------------|----2----2----5----7----|
|----0-----------------------------------------------------------|----0----0----3----5----|
|----------------------------------------------------------------|------------------------|


Info:And just this last chord:

|----------------------------|
|----------------------------|
|----2~~---------------------|
|----2~~---------------------|
|----0~~---------------------|
|----------------------------|


Chords:
ⓘ Guitar tab for 'Hung On A Hook' by Alice In Chains, an alternative metal band formed in 1987 from Seattle, Washington, USA. Alice In Chains is known for their gritty rock/pop music.