Guitar Tabs Explorer
Alice In Chains tabs for Hollow

Tabs

Difficulty: Intermediate



Tuning: A chord diagramDbDb A chord diagramAbAb A chord diagramDbDb A chord diagramGbGb A chord diagramBb majorBb A chord diagramEb MajorEb
Riff:
|--------------------------|
|------3-------------------|
|--------------------------|x8
|--0-3----3-2-0-2-0-1-1----|
|--0-3----3-2-0-2-0-1-1----|
|--0-3----3-2-0-2-0-1-1----|
PM            .   .


G2:
|-----------------------|
|-----------------------|
|---7/10---14---7-------|x4
|-----------------------|
|---5/-8---12---5-------|
|-----------------------|


Verse:
|-------------------------|
|-------------------------|
|-------------------------|x12
|--0-3---3-2-0-2-0-1-1----|
|--0-3---3-2-0-2-0-1-1----|
|--0-3---3-2-0-2-0-1-1----|
PM ...   .............
G2:w/wah
|---------------------------------------|
|---------------------------------------|
|---5/7-----------5---------------------|x3
|---------------------------------------|
|---3/5-----------3---------------------|
|--------------------------3b'----------|


Chorus:
|----------------------------|
|----------------------------|
|----------------------------|x4
|---5/8---8-7-5-7-5--6-------|
|----------------------------|
|---5/8---8-7-5-7-5--6-------|


Riff


Verse

G2:                                  x2
|---------------------------------------|------------------------------|
|---------------------------------------|------------------------------|
|---5/7-----------5---------------------|---5/7------------5-----------|
|---------------------------------------|-------------------------4b---|
|---3/5-----------3---------------------|---3/5------------3-----------|
|--------------------------3b'----------|------------------------------|


Chorus


Post Chorus:
|--------0-----1----------------------|
|-----3----3--------------------------|
|-----2------2----3-3-3-3-3-3---------|x8
|--0--0-----------3-3-3-3-3-3---------|
|--0--0-----------1-1-1-1-1-1---------|
|--0--0------------------------3b'----|


G2:
|--/14--10--15--10--/14--10--15--10---10--14h15-17-18--17-17-15-15-17-15-14------/22-22-22-22--|
|----------------------------------------------------------------------------------------------|
|----------------------------------------------------------------------------------------------|
|----------------------------------------------------------------------------------------------|
|----------------------------------------------------------------------------------------------|
|----------------------------------------------------------------------------------------------|

G1:                       G2:
|-----------------------|-----20---19br----|
|-----------8-----------|------------------|
|---5-------7-----------|------------------|
|---5-------5-----------|------------------|
|---3-------5-----------|------------------|
|-----------5-----------|------------------|


Solo:
|-------------------------------------------------------------------------------------|
|-------------------------------------------------------------------------------------|
|--------7------------------------7--------------------------7-------------------7~---|
|----------0---5h7-/10-9-8~---------0---5h7--------------------0---5h7-/10-9-8-7------|
|---/5-8---------------------/5-8-----------8b'--10-5~--/5-8--------------------------|
|-------------------------------------------------------------------------------------|

|-------------------------------------------------------------------------------|
|--------------------------------------20br-----17br-----15b--(15-15-15-15)r----|
|--12b----r-12h13p12-9h12p9-7~-----/15-------14-------13------------------------|
|-------------------------------------------------------------------------------|
|-------------------------------------------------------------------------------|
|-------------------------------------------------------------------------------|

|-------------------------------------------------|
|--12-13-15-13-12-13-10~--------------------------|
|-------------------------------------------------|
|-----------------------------5b-------------r----|
|-------------------------------------------------|
|-------------------------------------------------|


Verse


Chorus

Post Chorus


Riff


************************************

| /   slide up
| \   slide down
| h   hammer-on
| p   pull-off
| ~   vibrato
| +   harmonic
| x   Mute note
| b   Bend
| pb  Pre-bend
| br  Bend release
| pbr Pre-bend release
| brb Bend release bend
| b'  slight bend (about a quarter step)
| ()  strike note while string is bent

THE END!
ⓘ Guitar tab for 'Hollow' by Alice In Chains, an alternative metal band formed in 1987 from Seattle, Washington, USA. Alice In Chains is known for their gritty rock/pop music.