Guitar Tabs Explorer
Alice In Chains tabs for Heaven beside you acoustic

Heaven Beside You Acoustic tab by Alice In Chains

Alice In Chains tabs for Heaven beside you acoustic

Tabs

----------------------------------------------------------------------------
		 Heaven Beside You (acoustic)- Alice in Chains
----------------------------------------------------------------------------
Tabbed by: Brack

Tuning: Down a 1/2 a step
e-------------------------------------------|
b-------------------------------------------|
g-------------------------------------------|
d---------5b-----------0----------------0---|
a-------------7-----7-----7---------5-------|
E---0------------5-----------5---3----------|

Gtr 2
e|-9--10-7/9--9-10/9--7/9---9-10/9-7/9---9-10/9/7---------------------------|
A chord diagramBB|-X--X--X/---X--X----X-----X--X---X-----X--X-------------------------------|
A chord diagramG+G|-9--10-7/9--9-10/9--7/9---9-10/9-7/9---9-10/9/7---------------------------|
A chord diagramD MajorD|--------------------------------------------------------------------------|
A chord diagramA augmentedA|--------------------------------------------------------------------------|
A chord diagramE MajorE|--------------------------------------------------------------------------|
Gtr 2 continued....
e|---10b----------------------10b-------------------------------------------|
A chord diagramBB|---10b----------------------10b-------------------------------------------|
A chord diagramG+G|--------------------------------------------------------------------------|
A chord diagramD MajorD|-------------0---------0-------------0---------0--------------------------|
A chord diagramA augmentedA|--------0--7---7-----5-----------0-7---7-----5----------------------------|
A chord diagramE MajorE|-0---------------5-3------0--------------5-3------------------------------|


Chorus
       A chord diagramAadd9Aadd9	      A chord diagramG6G6	     Badd11	    A chord diagramCmaj7Cmaj7	   A chord diagramAadd9Aadd9
e--0--0--0--0--0--0--0--0--0--0--0--0--0--0--0--0--0--0--0--0--0--0--0--|
B--0--0--0--0--0--0--0--0--0--0--0--0--0--0--0--0--0--0--0--0--0--0--0--|
G--6--6--6--6--6--4--4--4--4--4--9--9--9--9--9--8--8--8--8--8--6--6--6--|
D--7--7--7--7--7--5--5--5--5--5-10-10-10-10-10--9--9--9--9--9--7--7--7--|
A--7--7--7--7--7--5--5--5--5--5-10-10-10-10-10--9--9--9--9--9--7--7--7--|
E--5--5--5--5--5--3--3--3--3--3--8--8--8--8--8--7--7--7--7--7--5--5--5--|
Bridge
e|--------------------------------------------------------------------------|
A chord diagramBB|--------------------------------------------------------------------------|
A chord diagramG+G|-----0-------0-------0-------0-------0-------0--------0--------0----------|
A chord diagramD MajorD|--------------------------------------------------------------------------|
A chord diagramA augmentedA|---3---3---3---3---4---4---4---4---5---5---5---5----6---6----6---6--------|
A chord diagramE MajorE|-4-------4-------5-------5-------6-------6--------7--------7--------------|

Interlude
e|-0---------------------------------0--------------------------------------|
A chord diagramBB|-0-------------------------------0-0--------------------------------------|
A chord diagramG+G|-0------------------------------0-0---------------------------------------|
A chord diagramD MajorD|-2-------------------0------0--2-2-2-----------------0-----0--------------|
A chord diagramA augmentedA|-2----7------------2------1----2-2-2----7----------2-----1----------------|
A chord diagramE MajorE|-0--0-----0--5b--3------2------0-0-0--0----0--5b-3-----2------------------|

Guitar Solo

e|----------------------------------------------------------------------------|
A chord diagramBB|----------------------------------------------15-15v-12-15-12----12---------|
A chord diagramG+G|----14v--12-14-12----12----------12-14b-14-12-----------------14----14b14b--|
A chord diagramD MajorD|------------------14----14-12-14--------------------------------------------|
A chord diagramA augmentedA|----------------------------------------------------------------------------|
A chord diagramE MajorE|-0--------------------------------------------------------------------------|

e|---------------------------------------0------------------0----------------|
A chord diagramBB|-----------------------------------------0------------------0--------------|
A chord diagramG+G|--(14)p12----12----------------------------15----15----15-----15----15--15-|
A chord diagramD MajorD|----------14----14-12-14----------------------14----14-----------14---14---|
A chord diagramA augmentedA|-------------------------12-10-10-10---------------------------------------|
A chord diagramE MajorE|---------------------------------------------------------------------------|

e|-------0------------0----------------------------------0------------------|
A chord diagramBB|---------0------------0------------------------0---------0-------0--------|
A chord diagramG+G|-12--------15-15--------15----15----12----15--------15-----15---------12--|
A chord diagramD MajorD|----14-----------14--------14----14----14--------14-----------14---14-----|
A chord diagramA augmentedA|---------------------------------------------0----------------------------|
A chord diagramE MajorE|--------------------------------------------------------------------------|

e|-0------------------0----------------0------------------0-----------------|
A chord diagramBB|---0-------0----------0------0---------0------------------0---------------|
A chord diagramG+G|-----15----------12-----15--------12-----15----15----15-----15----15---12-|
A chord diagramD MajorD|--------14----14----------14---14-----------14----14-----------14----14---|
A chord diagramA augmentedA|--------------------------------------------------------------------------|
A chord diagramE MajorE|--------------------------------------------------------------------------|
ⓘ Guitar tab for 'Heaven Beside You Acoustic' by Alice In Chains, an alternative metal band formed in 1987 from Seattle, Washington, USA. Alice In Chains is known for their gritty rock/pop music.

Other versions of Heaven Beside You Acoustic

Other alternative guitar chords and tabs for the song Heaven beside you by Alice In Chains
Heaven beside youTabs