Log in

One click and you are in

Login with Facebook Login with Google

Why sign up and log in

Guitar Tabs Explorer
Alice In Chains tabs for Hate to feel

Guitar tabs with lyrics

"HATE TO FEEL" by ALICE IN CHAINS
 tabbed by Nick Jorgensen
 e-mail: XLittleNickyx@aol.com


Another great song by Alice in chains, first I heard of them.
And once again, its in A chord diagramEb MajorEb tuning to no surprise.

okay, the verse/intro is this:
|--------------------|
|--------------------| play this a good number of times
|--------------------|
|-6-5-4--------------|
|-7-6-5-6-5-4--------|
|-------7-6-5--0-3~~-|

than it goes into this:
|----------------------------------------------15-------|
|-------------------------------------------------15----| " look at me,
|----------------------------------------------------15-|     now i'm set,
|------------- while the second guitar is playing ^ ----|  little bug
|------3------------------------------------------------| for a pet."
|-2-2--1------------------------------------------------|
|-0-0---------- ( 1st g: 8 times, 2nd g: 8 also ) ------|

this next bit is the same thing with natural harmonics.
|-2-2-8-x-2-2-8-------------| (that you make by the frets
|-2-2-8-x-2-2-8-------------|     & not with your pick & finger)
|-0-0-6-x-0-0-6-(5nh)-(5nh)-|

than its the part like "all this time i never swore i'd be like my old man"
|----------------3-3-3-3--------|
|-2-2-2-23-3-3-3-3-3-3-3-2-22-2-|
|-2-2-2-23-3-3-3-1-1-1-1-2-22-2-|
|-0-0-0-01-1-1-1---------0-00-0-|

now its the chorus " wish i couldn't feel at all" "hate to feel, yeah"
|---------------------------------------------------------|
|-while this is the rhythm,-------------------------------|
|---the lead comes in with----------------12^14(12)-------|
|-------------------3~-|-----------12h14-------------12~~~|
|-22-2-2-2-2-2-2-2--1~-|-------14-------------------------|
|-00-0-0-0-0-0-0-0-----|

after a while of this order, its the solo:
he plays around with the wah a bit, so do so.
|---------15---15------------------------------------------------12--------|
|---15~-----15~--15~---------------12-------------------------12----15^p12-|
|---------------------12-14-14^(16)---12--------12^-------14^--------------|
|----------------------------------------14--14-----12h14------------------|
|--------------------------------------------------------------------------|
|--------------------------------------------------------------------------|
                           (pinched harmonic)
|---------------------------------------------------------------|
|------12-12-------3/5-5-3-------------------0------------------|
|------12-12^--------------4\3-2(p.h.)-2^(stay-ful)-2p0---------|
|---14--------14------------------------(till the 0)----0h2--2--|
|---------------------------------------------------------------|
|---------------------------------------------------------------|

|---------------------------------------------------------------|
|-----------------------------8-10^-10~-10(ph)-10-8---8---------|
|-------7~~-----7~-7h9~-9-7h9-----------------------9---9~-9^---|
|------6------6----------------------------------------------9--|
|---2/7----5/7--------------------------------------------------|
|---------------------------------------------------------------|

|--------------------------------------------------------|
|--------------------------------------------------------|
|---9-7--------------------------------------------------|
|-------9-8--7--5--7--7^--5----5-------------------------|
|-----------(all-^^^-are-p.h.)--7-7p5h7p5-------5--------|
|-----------------------------------------5h7-7--7-5-3-3~(tremelo dive here)

high e|--/15~--17^-------------|
      |------------17p15-17p15-|

yeah. that's it for this song. later.

Almost there ...

Sign in to get your own page with links to favourite songs and more. You are just one click away...

Login with Facebook Login with Google