Guitar Tabs Explorer
Alice In Chains tabs for Got me wrong acoustic version

Got Me Wrong Acoustic Version tab by Alice In Chains

Alice In Chains tabs for Got me wrong acoustic version

Tabs

(Intro Part)
  E----4-------------4---------------
  B----4-------------4---------------
  G----5-------------5---------------
  D----6-------------6---------------
  A----6-------------6---------------
  E----4-------------4---------------
       (Short Pause)
  (Verse)
  E--4--4------0--0-0-0-0---2----------------
  B--4--4---0--0--0-0-0-0---2----------------
  G--5--5---1--1--1-1-1-1---3-X-X------------
  D--6--6---2--2--2-2-2-2---4-X-X------------
  A--6--6---2-----2-2-2-2---4-X-X------------
  E--4--4---0-----0-0-0-0---2-X-X------------
   (Repeat Throughout verse)


   (Chorus) A chord diagramD MajorD A chord diagramFF A chord diagramC majorC A chord diagramA augmentedA (Open Chords)

   I Haven't Felt Like this in so Long.______

  E--------2-2----5-5-5-5-5-5--
  B--------2-2----5-5-5-5-5-5--   (Listen to Song
  G-1-1----3-3----6-6-6-6-6-6--  For timing.)
  D-2-2----4-4----7-7-7-7-7-7--
  A-2-2----4-4----7-7-7-7-7-7--
  E-0-0----2-2----5-5-5-5-5-5--
    Wrong.___________________________


  That don't last Forever.___________________

  E-2--2--2------5--5--5------------
  B-2--2--2------5--5--5------------
  G-3--3--3------6--6--6------------
  D-4--4--4------7--7--7------------
  A-4--4--4------7--7--7------------
  E-2--2--2------5--5--5------------
     (Strum)     (Strum)

 This is an awesome song and band!

 Hope this tab is useful!
ⓘ Guitar tab for 'Got Me Wrong Acoustic Version' by Alice In Chains, an alternative metal band formed in 1987 from Seattle, Washington, USA. Alice In Chains is known for their gritty rock/pop music.