Guitar Tabs Explorer
Alice In Chains tabs for Godsmack

Godsmack tab by Alice In Chains

Alice In Chains tabs for Godsmack

Tabs with lyrics

"GODSMACK" by ALICE IN CHAINS
 tabbed by Nick Jorgensen
 e-mail: [email protected]

Alright, first off. Great song, Great band.
"Godsmack" is in A chord diagramEb MajorEb tuning, or a half-step down.
The song starts out with the guitar intro/verse.
and here it is. ( i hope its right )

|--------------------------_________--_________|
|--------------------------1st endin--2nd endin|
|-------------------------|---4~---|-|-4-------|
|-2-3-2-------------------|-4-4~---|-|-4-4~----|
|-1-1-1-4-3-4-3-4-2-2-2-3-|-4-2~---|-|-2-4~----|
|-------2-2-2-2-2-0-0-0-1-|-2------|-|---2~----|
  . . . . . . . . . . . .   .
next is this bridge-type thing, built off the verse riff.
you know the "now you know the reasons why, can't get high or you will die" part.

|-------------------------------------------------------|
|-------------------------------------------------------|
|-------------------------------------------------------|
|-------------------5-4~------------------------------4~|
|-3-4-3-4--2-2-2-2--3-2~-3-4-3-4--2-2-2-2-2-2-2-2-3-4-2~|
|-2-2-2-2--0-0-0-0-------2-2-2-2--0-0-0-0-0-0-0-0-1-2---|
  . . . .  . . . .       . . . .  . . . . . . . . . .
this riff is just leading into the chorus. its where he sings " or you'll dieeee"
|--------------------|
|--------------------|
|--------------------|
|-4-5----5-/-7-7--7--|
|-4-5----5-/-7-7--7--|
|-2-3----3-/-5-5--5--|

ok now for the chorus, its really tough if you don't have a wah-wah pedal.
you're gonna need one. so buy it. or play it like it is but not sounding good.
i am not sure if this is right. play it and you decide. O's mean to stomp down.
   O   O    O     O   O    O  O    O   O    O     O    O   O     O
|--------------------9-------------------------|
|-12-12-12--12-12-12-9--12-12-12--12-12-12--10-|
|-11-11-11--11-11-11-9--11-11-11--11-11-11--10-|
|-12-12-12--12-12-12----12-12-12--12-12-12--10-|
|----------------------------------------------|
|----------------------------------------------|

see here would where the solo would be. but i can't tab it. sorry.
but underneath is the intro/verse.

ok that's the end of the song. listen to the song to get the order.

later.
ⓘ Guitar tab for 'Godsmack' by Alice In Chains, an alternative metal band formed in 1987 from Seattle, Washington, USA. Alice In Chains is known for their gritty rock/pop music.