Guitar Tabs Explorer
Alice In Chains tabs for Down in a hole acoustic

Down In A Hole Acoustic tab by Alice In Chains

Alice In Chains tabs for Down in a hole acoustic

Tabs with lyrics

Album: Unplugged

Tabbed by Jarred B.

I noticed there was no tabs on the site for this version of the song so here it is. This
is my first attempt at a tab. I think im pretty close to correct but if you disagree then
share your corrections instead of complaining about it. This is one of my all-time fave
songs. Enjoy.

Guitar I - Jerry Cantrell - Acoustic
Guitar II - Scott Olson - Acoustic
[Intro and Verse] - Guitar I

e  --------------------------3--------2------2-----|
A chord diagramBB o-0h1----------1------------3---------3----------|
A chord diagramG+G ------2-----------2----------0----------2--------|
A chord diagramD MajorD ---------2-------------------------0-------------|
A chord diagramA augmentedA o-0---------0------------------------------------|
A chord diagramE MajorE  --------------------------3---------------------|
   "Bur -               y   me          softly in this
   womb"


[Prechorus] (Strumming pattern not tabbed)

Guitar I

|------------------3------------2------------------|
|o-----------------3------------3------------------| o
|------------------0------------2------------------|
|--9--10-9--7---- 0------------0-------------------|
|o-0--0--0--0--- -2--------------------------------| o
|------------------3-------------------------------|

Guitar II
|--0-----------3----------------2----------------|
|--0-1-0-------3----------------3----------------|
|--2------2----0----------------2----------------|
|--2-----------0----------------0----------------|
|--0-----------2---------------------------------|
|--------------3---------------------------------|
"Down...      don't...         I can be saved."


[Chorus] (Strumming pattern not tabbed)

Guitar I

|-------------------------3------------2--------------|
|-------------------------3------------3--------------|
|---9-10-9-7--7h9p7-------0------------2--------------|
|---0--0-0-0--------------0------------0--------------|
|-------------------------2---------------------------|
|-------------------------3---------------------------|

Guitar II

|--0--1--0--0--0------0---------------0---0------|
|--3--3--3--3----3-3------3----3--------3--------|
|--2--2--2--2------0-----------0-----------------|
|------------------2-----------0-----------------|
|------------------3-----------2-----------------|
|------------------------------3-----------------|
   "Down  in a  hole
    Feelin so small
    Down in a hole
    Losing con-trol"

Played during last chorus by Guitar II.
|-------13--------12----------10-------------|
|----15--------15----------13----------------|
|-14--------14----------12---------7h9p7-----|
|--------------------------------------------|
|--------------------------------------------|
|--------------------------------------------|

[Post chorus] (Strumming pattern not tabbed)

Guitar I & 2

|2-----0-----1-----------------|
|3-----0-----1-----------------|
|2-----1-----2-----3-----------|
|0-----2-----3-----3----3----1-|
|------2-----3-----5----3----1-|
|------0-----1----------5----3-|
"I'd     like     to     fl-      y     but"
ⓘ Guitar tab for 'Down In A Hole Acoustic' by Alice In Chains, an alternative metal band formed in 1987 from Seattle, Washington, USA. Alice In Chains is known for their gritty rock/pop music.

Other versions of Down In A Hole Acoustic

Other alternative guitar chords and tabs for the song Down in a hole by Alice In Chains
Down in A HoleTabs