Log in

One click and you are in

Login with Facebook Login with Google

Why sign up and log in

Guitar Tabs Explorer
Alice In Chains bass tabs for Dirt

Bass tabs

Album: Dirt
Tabbed by Ori B.

I'm not sure about the tuning, I couldn't figure whether it's Gb Db Ab =
Eb or standard.
intro:

G |---------------------------------------------------------|=20
D |---------------------------------------------------------|
A |-0-------------------------------------------------------|
E |---------------------------------------------------------|


verse:

G |-----------------------------------|
D |*-----------3---------------------*|
A |*-0---0-3-4-----4-3-0---0-3-4-----*|
E |------------------------------3----|

repeats several times.


chorus:

G |--------------------------------------|
D |--------------------------------------|
A |-0--1--3--0--1--3--0--1--3--0---1--3--|
E |--------------------------------------|

During the solo and the outro play the verse part.




Send any comments, corrections or anything else to =
oriben2@netvision.net.il.

Thanx and enjoy.=

Almost there ...

Sign in to get your own page with links to favourite songs and more. You are just one click away...

Login with Facebook Login with Google