Log in

One click and you are in

Login with Facebook Login with Google

Why sign up and log in

Guitar Tabs Explorer
Alice In Chains tabs for Dirt album

Guitar tabs

Album- Dirt

1.THEM BONES


Tuning A chord diagramDbDb A chord diagramAbAb A chord diagramDbDb A chord diagramGbGb A chord diagramBb majorBb A chord diagramEb MajorEb  aka A chord diagramC#C# A chord diagramG#G# A chord diagramC#C# A chord diagramF#F# A chord diagramA#A# A chord diagramD#D#
Intro:
eb|-----------------------------------------||
A chord diagramBb majorBb|10---------------------------------------||
A chord diagramGbGb|10---------------------------------------||o
A chord diagramDbDb|10---------------------------------------||o
A chord diagramAbAb|-0--0--0--1--1--1--1--2--2--2--3--0--0---||
A chord diagramDbDb|-0--0--0--1--1--1--1--2--2--2--3--0--0---||
pm     ......................................

eb|----------------------------------------|
A chord diagramBb majorBb|-10-------------------------------------|
A chord diagramGbGb|-10-------------------------------------|
A chord diagramDbDb|-10-------------------------------------|
A chord diagramAbAb|--0----0--0--1--1--1--1--2--2--2--3-----|
A chord diagramDbDb|--0----0--0--1--1--1--1--2--2--2--3-----|
pm        ................................

Verses:
eb|---------------------------------||
A chord diagramBb majorBb|---3-----------------------------||
A chord diagramGbGb|---2-----------------------------||o
A chord diagramDbDb|---0------1-------2.------3------||o repeat
A chord diagramAbAb|---0------1-------2.------3------||
A chord diagramDbDb|---0------1-------2.------3------||

eb|---------------------------------|
A chord diagramBb majorBb|---3-----------------------------|
A chord diagramGbGb|---2-----------------------------|
A chord diagramDbDb|---0------1-------2.------3---0--|
A chord diagramAbAb|---0------1-------2.------3---0--|
A chord diagramDbDb|---0------1-------2.------3---0--|

Chorus:
eb|-----------------------------------------------|
A chord diagramBb majorBb|-------------------------------------------10--|
A chord diagramGbGb|--------------------------------------------9--|
A chord diagramDbDb|--------------------------------------9/11-----|
A chord diagramAbAb|--/8-----8-----8--8--8--7---7--7--7------------|
A chord diagramDbDb|--/8-----8-----8--8--8--7---7--7--7------------|

eb|---------------------------------------------|-------|
A chord diagramBb majorBb|---------------------------------------------|-------|
A chord diagramGbGb|---------------------------------------------|-------|
A chord diagramDbDb|---------------------------------------------|-------|
A chord diagramAbAb|--10---10-----10--10--10--9----9--9--9--9--8-|--8--0-|
A chord diagramDbDb|--10---10-----10--10--10--9----9--9--9--9--8-|--8--0-|
                                                   ^  ^ dont play
							these 1st time

Guitar Solo: w/heavy distortion (guitar 2)
eb|------------------------------------------------------------|
A chord diagramBb majorBb|------------------------------N.H---------------------------|
A chord diagramGbGb|-------------------------------4*------------------5---12^--|
A chord diagramDbDb|-3-------3-------5-----6-----5---3^-----------5/7-----------|
A chord diagramAbAb|---5-5-5---5-5-5---5-5---5-5--------5-3-5---3---------------|
A chord diagramDbDb|------------------------------------------------------------|
pm    .....   .....   ...   ...

eb|----------------------------------------------------------|
A chord diagramBb majorBb|----------------------------------------------------------|
A chord diagramGbGb|-12^--(12)---12^p10---------------------------------------|
A chord diagramDbDb|----------------------12----10h12p10----------------------|
A chord diagramAbAb|-------------------------------------12p10-10\8--10^---8--|
A chord diagramDbDb|----------------------------------------------------------|

eb|----------------------------------------------------------------|
A chord diagramBb majorBb|-----------13--13--13--11---10h11p10----------------------------|
A chord diagramGbGb|--9-----9-----------------------------10------------------------|
A chord diagramDbDb|------------------------------------------12--------------10-12-|
A chord diagramAbAb|--------------------------------------------------8-10-12-------|
A chord diagramDbDb|----------------------------------------------------------------|
pm                                                   ..............

eb|----------------------------------------------------------------|
A chord diagramBb majorBb|------10h11-p10--------10-11-13^--11-13-11--10-------8-10-10^---|
A chord diagramGbGb|-9-10-----------------------------------------------------------|
A chord diagramDbDb|----------------------------------------------------------------|
A chord diagramAbAb|----------------------------------------------------------------|
A chord diagramDbDb|----------------------------------------------------------------|
pm......

eb|-15^-----15--13-----13--------------------20^----20--18--17-----|
A chord diagramBb majorBb|-----------------15----15--15^----15------------------------20--|
A chord diagramGbGb|----------------------------------------------------------------|
A chord diagramDbDb|----------------------------------------------------------------|
A chord diagramAbAb|----------------------------------------------------------------|
A chord diagramDbDb|----------------------------------------------------------------|

eb|-17--------------------------------------------------------------|
A chord diagramBb majorBb|-----20^--20--18-----18------18h20p18----18h20p18----18h20p18----|
A chord diagramGbGb|-----------------19------19-----------19----------19----------19-|
A chord diagramDbDb|-----------------------------------------------------------------|
A chord diagramAbAb|-----------------------------------------------------------------|
A chord diagramDbDb|-----------------------------------------------------------------|

eb|-----------------------------------------------------------------|
A chord diagramBb majorBb|-18h20p18----18h20p18----18h20p18----18h20p18----18--20^--20--18-|
A chord diagramGbGb|----------19----------19----------19----------19-----------------|
A chord diagramDbDb|-----------------------------------------------------------------|
A chord diagramAbAb|-----------------------------------------------------------------|
A chord diagramDbDb|-----------------------------------------------------------------|

gradual bend         ************************************
eb|-----------------------------------------------------------------|
A chord diagramBb majorBb|-----18----------------------------------------------------------|
A chord diagramGbGb|--19----19--19--/12^--^--12^--12^--12^--12^--12^--12^--12^p10----|
A chord diagramDbDb|--------------------------------------------------------------12-|
A chord diagramAbAb|-----------------------------------------------------------------|
A chord diagramDbDb|-----------------------------------------------------------------|
w/wah        .......................................................

continued: w/wah
eb|----------------------------------------------------------------|
A chord diagramBb majorBb|----------------------------------------------------------------|
A chord diagramGbGb|-10---------10--------------------------------------------------|
A chord diagramDbDb|-------12---------12----10p12--12--12--12--10--10---------------|
A chord diagramAbAb|---------------------------------------------------12\----------|
A chord diagramDbDb|----------------------------------------------------------------|

During the end of the solo guitar 1 uses his drive bar and hits
the A chord diagramBB string 10th fret first, then A chord diagramA augmentedA string open and  has
it so his strings are very slacky towards the end.

Coda/outro:
eb|-----------------------------------------------|
A chord diagramBb majorBb|-------------------------------------------10--|
A chord diagramGbGb|--------------------------------------------9--|
A chord diagramDbDb|--------------------------------------9/11-----|
A chord diagramAbAb|--/8-----8-----8--8--8--7---7--7--7------------|
A chord diagramDbDb|--/8-----8-----8--8--8--7---7--7--7------------|

eb|---------------------------------------------------|
A chord diagramBb majorBb|---------------------------------------------------|
A chord diagramGbGb|---------------------------------------------------|
A chord diagramDbDb|---------------------------------------------------|
A chord diagramAbAb|--10---10-----10--10--10--9----9--9--9--9--8--8--0-|
A chord diagramDbDb|--10---10-----10--10--10--9----9--9--9--9--8--8--0-|

eb|-----------------------------------------------|
A chord diagramBb majorBb|-------------------------------------------10--|
A chord diagramGbGb|--------------------------------------------9--|
A chord diagramDbDb|--------------------------------------9/11-----|
A chord diagramAbAb|--/8-----8-----8--8--8--7---7--7--7------------|
A chord diagramDbDb|--/8-----8-----8--8--8--7---7--7--7------------|


eb|------------------------------------------------|
A chord diagramBb majorBb|------------------------------------------------|
A chord diagramGbGb|------------------------------------------------|
A chord diagramDbDb|------------------------------------------------|
A chord diagramAbAb|--10---10-----10--10--10--9----9--9--9--9--8-\--|
A chord diagramDbDb|--10---10-----10--10--10--9----9--9--9--9--8-\--|

2.DAM THAT RIVER


Tuning A chord diagramDbDb A chord diagramAbAb A chord diagramDbDb A chord diagramGbGb A chord diagramBb majorBb eb


Intro:
eb|-------------------------------------------------------------------------|
A chord diagramBb majorBb|-------------------------------------------------------------------------|
A chord diagramGbGb|-------------------------------------------------------------------------|
A chord diagramDbDb|-------------------------------------------------------------------------|
A chord diagramAbAb|-3---4---5---0-----5---6--7--6--5--3--0----3--4--5--0---5--6--7--6--5--3-|
A chord diagramDbDb|-3---4---5---0-----5---6--7--6--5--3--0----3--4--5--0---5--6--7--6--5--3-|

eb|-----------------------------------------------------------------|
A chord diagramBb majorBb|-----------------------------------------------------------------|
A chord diagramGbGb|---------5-------2-----------------------5------2----------------|
A chord diagramDbDb|--3^----------3--------3---5------3^---------3-------5---3^------|
A chord diagramAbAb|-------------------------------5------------------------------5--|
A chord diagramDbDb|-----------------------------------------------------------------|


Verse:
eb|--------------------------------------------------------|
A chord diagramBb majorBb|--------------------------------------------------------|
A chord diagramGbGb|--------------------------------------------------------|
A chord diagramDbDb|--------------------------------------------------------|
A chord diagramAbAb|--------------------------------------------------------|
A chord diagramDbDb|--------------------------------------------------------|

eb|----------------------------------------------------------------|
A chord diagramBb majorBb|----------------------------------------------------------------|
A chord diagramGbGb|--5/6\5--------------------------------------5/6\5--------------|
A chord diagramDbDb|--3/4\3-------------3--------5^-----3--------3/4\3--------------|
A chord diagramAbAb|--------------3h5---------5-------------5------------5---5---3--|
A chord diagramDbDb|----------------------------------------------------------------|
pm                                                      ..........


Chorus:
eb|-------------------------------------------------------------------------|
A chord diagramBb majorBb|-------------------------------------------------------------------------|
A chord diagramGbGb|-------------------------------------------------------------------------|
A chord diagramDbDb|-------------------------------------------------------------------------|
A chord diagramAbAb|-3---4---5---0-----5---6--7--6--5--3--0----3--4--5--0---5--6--7--6--5--3-|
A chord diagramDbDb|-3---4---5---0-----5---6--7--6--5--3--0----3--4--5--0---5--6--7--6--5--3-|

eb|-----------------------------------------------------------------|
A chord diagramBb majorBb|-----------------------------------------------------------------|
A chord diagramGbGb|---------5-------2-----------------------5------2----------------|
A chord diagramDbDb|--3^----------3--------3---5------3^---------3-------5---3^------|
A chord diagramAbAb|-------------------------------5------------------------------5--|
A chord diagramDbDb|-----------------------------------------------------------------|

Guitar Solo:  Guitar 1
eb|---------------------------------------------------------|
A chord diagramBb majorBb|-----------------5------------------5---------5-------5--|
A chord diagramGbGb|-----------------5-------5----5h7---5-----------------7^-|
A chord diagramDbDb|---5---6----7-------------------------------------0------|
A chord diagramAbAb|---------------------------------------------------------|
A chord diagramDbDb|---------------------------------------------------------|
              Guitar 2
eb|----------------------------------------------------------|
A chord diagramBb majorBb|----------------------------------------------------------|
A chord diagramGbGb|----------------------------------------------------------|
A chord diagramDbDb|----------------------------------------------------------|
A chord diagramAbAb|---7----6----5----3------3-----3----3----3----3----3----3-|
A chord diagramDbDb|---7----6----5----3------3-----3----3----3----3----3----3-|
pm                          .................................

             Guitar 1: continued...
eb|---------------------------------10--~~~~---------------|
A chord diagramBb majorBb|----6--------8---------10--------13^-~~~~---------------|
A chord diagramGbGb|----8^------10^--------12^------------------------------|
A chord diagramDbDb|--------------------------------------------------------|
A chord diagramAbAb|--------------------------------------------------------|
A chord diagramDbDb|--------------------------------------------------------|
             Guitar 2: continued...
eb|-----------------------------------------------------------------------|
A chord diagramBb majorBb|-------------------------------------3---------3-----------------------|
A chord diagramGbGb|-------------------------------------2---------2-----------------------|
A chord diagramDbDb|--7----------------------------------0---------0-----------------------|
A chord diagramAbAb|--5---6----3----6----3----0----0-----0---------0--------7---6---5---3--|
A chord diagramDbDb|------6----3----6----3----0----0-----0---------0--------7---6---5---3--|

             Guitar 1: continued....
eb|--------------------------------------------------------------------------|
A chord diagramBb majorBb|---13----13------------10---0---10----------------------------------------|
A chord diagramGbGb|---12^---12^--12h10----10---0---10--10------------------gradual--------12-|
A chord diagramDbDb|--------------------12------0----------12--10-------------1/2-----------x-|
A chord diagramAbAb|-----------------------------------------------11--10--8--10^----10^---10-|
A chord diagramDbDb|-----------------------------------------------------------------full-----|
             Guitar 2: continued....
eb|---------------------------------------------------------------------------|
A chord diagramBb majorBb|------------------------------------------------------------------3----3---|
A chord diagramGbGb|------------------------------------------------------------------2----2---|
A chord diagramDbDb|--------------------------------------7---------------------------0----0---|
A chord diagramAbAb|--3----3----3----3----3----3-----3----5---6---3---6---3---0---0---0----0---|
A chord diagramDbDb|--3----3----3----3----3----3-----3--------6---3---6---3---0---0---0----0---|
pm ...................................

             Guitar 1: continued
eb|------------------------------------------------------------------------|
A chord diagramBb majorBb|------------------------------------------------------------------------|
A chord diagramGbGb|-12/14---12\10--10--10/12---12/14---12---7-----5--7--7--5--7--7--5--4---|
A chord diagramDbDb|--x--x----x--x---x---x--x----x--x----x---x-----x--x--x--x--x--x--x--x---|
A chord diagramAbAb|-10/12---10\-8---8---8/10---10/12---10---5-----3--5--5--3--5--5--3--2---|
A chord diagramDbDb|------------------------------------------------------------------------|
             Guitar 2: continued
eb|------------------------------------------------------------------------|
A chord diagramBb majorBb|-3--3-------------------------------------------------------------------|
A chord diagramGbGb|-2--2-------------------------------------------------------------------|
A chord diagramDbDb|-0--0----------------------------------------------------7--------------|
A chord diagramAbAb|-0--0------7----6---5---3-----3--3--3--3--3--3--3--3--3--5--6--3----0---|
A chord diagramDbDb|-0--0------7----6---5---3-----3--3--3--3--3--3--3--3--3-----6--3----0---|
pm                               ..........................

             Guitar 1: continued....
eb|--------------------------------------------------------------------|
A chord diagramBb majorBb|--------------------------------------------------------------------|
A chord diagramGbGb|--5/7----7---7---7---5------7^-------7^------7---5h7-5--------------|
A chord diagramDbDb|--x-x----x---x---x---x----------------------------------6---5-------|
A chord diagramAbAb|--3/5----5---5---5---3-------------------------------------------8--|
A chord diagramDbDb|--------------------------------------------------------------------|

3.RAIN WHEN I DIE


Tuning: Down a half step/ "Dropped D" (A chord diagramDbDb A chord diagramAbAb A chord diagramDbDb A chord diagramGbGb A chord diagramBb majorBb A chord diagramEb MajorEb)
(Chords given for regular tuning)


Verse
-----
  A chord diagramD5D5
|-------------------------------------------------|
|-------------------------------------------------|
|-------------------------------------------------|
|-----------------3-------------------------------|
|-3h5-3---0-------------------3-h-5---------------|
|-------------3-----------0-----------0---3---0---|

  1 e + a 2 e + a 3 e + a 4 e + a 5 e + a 6 e + a

                                          A chord diagramC5C5
|-------------------------------------------------|
|-------------------------------------------------|
|-------------------------------------------------|
|-----------------3-------------------------------|
|-3h5-3---0-------------------3-h-5-------3-------|
|-------------3-----------0-----------0-------0---|
  1 e + a 2 e + a 3 e + a 4 e + a 5 e + a 6 e + a


Chorus
------

  A chord diagramDmDm                A chord diagramBbsus4Bbsus4                      A chord diagramF5F5
|-----------------|-----------------1---------------|
|-----------------|-------------1-------------------|
|-----------------|-3-------------------------------|
|-----------------|-3---------------------------3--s|
|---------0-h-5---|-1---------------------------3--s|
|-0-h-3-----------|-----------------------------3--s|
  1 e + a 2 e + a   1 e + a 2 e + a 3 e + a 4 e + a

      A chord diagramG5G5
|---------------------------------|
|---------------------------------|
|---------------------------------|
|-----5---5-------5---------------|
|-----5---5-------5---------------|
|-----5---5-------5---------------|
  1 e + a 2 e + a 3 e + a 4 e + a

  A chord diagramBbsus4Bbsus4                      A chord diagramF5F5        A chord diagramG5G5          A chord diagramDmDm
|-----------------1---------------|---------------------------------|
|-------------1-------------------|---------------------------------|
|-3-------------------------------|---------------------------------|
|-3---------------------------3--s|-----5---5-----------------------|
|-1---------------------------3--s|-----5---5---------------0-h-5---|
|-----------------------------3--s|-----5---5-------0-h-3-----------|
  1 e + a 2 e + a 3 e + a 4 e + a   1 e + a 2 e + a 3 e + a 4 e + a

  A chord diagramBbsus4Bbsus4                      A chord diagramF5F5        A chord diagramG5G5
|-----------------1---------------|---------------------------------|
|-------------1-------------------|---------------------------------|
|-3-------------------------------|---------------------------------|
|-3---------------------------3--s|-----5---5-------5---------------|
|-1---------------------------3--s|-----5---5-------5---------------|
|-----------------------------3--s|-----5---5-------5---------------|
  1 e + a 2 e + a 3 e + a 4 e + a   1 e + a 2 e + a 3 e + a 4 e + a

  A chord diagramBbsus4Bbsus4                                A chord diagramC5C5
|-----------------1---------------|---------------------------------|
|-------------1-------------------|---------------------------------|
|-3---------------------------3--s|-----5---5-----------------------|
|-3---------------------------3--s|-----5---5-----------------------|
|-1---------------------------1--s|-----3---3-----------------------|
|---------------------------------|---------------------------------|
  1 e + a 2 e + a 3 e + a 4 e + a   1 e + a 2 e + a 3 e + a 4 e + a

4.SICKMAN

Tune all strings down 1/2 step

(drums) 3  Gtr 1            Rhy. Fig. 1
|---------|----------------|----------------------------------|
|---------|----------------|----------------------------------|
|---------|--11\-----------|----------------------------------|
|---------|--11\-------11p7|----------------------------------|
|---------|----------------|----------3-3-3-------3-------3---|
|---------|----------------|--2-2-2-2-------2-2-2---2-2-2---2-|
|Gtr. 2                     P.M...........................
|---------|----------------|------------------------------|
|---------|----------------|------------------------------|
|---------|----------------|------------------------------|
|---------|----------------|--7--------------------7------|
|---------|----------------|------------------------------|
|---------|----------------|------------------------------|
                             w/delay
Gtr.1
(end Rhy. Fig1)
|----------------------------------|----------------------------------|----------------------------------|
|----------------------------------|----------------------------------|----------------------------------|
|----------------------------------|----------------------------------|----------------------------------|
|----------------------------------|----------------------------------|----------------------------------|
|---------3-3-3-------3-------3----|---------3-3-3-------3-------3----|---------3-3-3-------3-------3----|
|-2-2-2-2-------2-2-2---2-2-2---2--|-2-2-2-2-------2-2-2---2-2-2---2--|-2-2-2-2-------2-2-2---2-2-2---2--|
|P.M.....................................................................................................
|Gtr. 2
|----------------------------------|----------------------------------|----------------------------------|
|----------------------------------|----------------------------------|----------------------------------|
|----------------------------------|----------------------------------|----------------------------------|
|--7------------------7------------|--7------------------7------------|--7------------------7------------|
|----------------------------------|----------------------------------|----------------------------------|
|----------------------------------|----------------------------------|----------------------------------|


Verse w/Rhy. fig. 1
1. What the hell am I? Thousand  eyes a fly. Lucky then I'd be in one day deceased.
2. What the hell am I? Leper from inside. Inside wall of peace dirty and deceased.
3. What the hell am I? Worn eroded pride. Saddened ten miles wide. I'm gonna let it slide


chorus w/ Rhy. Fig. 2
1.,2.,3.  Sickman  sickman, sickman, sickman
Rhy fig. 2 Gtr. 1
|-------------------------------|--------------------------------|
|-------------------------------|--------------------------------|
|-------------------------------|---------8-8-8--------7-7-----5-|
|---------3-3---------3-3-----3-|-7-7-7-7-7-7----5-5-5-5-5-3-3-5-|
|---------1-1---------1-1-----1-|--------------------------------|
|-0-0-0-0-----0-0-0-0-----0-0---|--------------------------------|

Rhy. fig. 1 (first 2 meas.)


Bridge Gtr. 1
|-------------------------------|-------------------------------|
|--------/10----------/10-------|--------/10----------/10-------|
|---------/8-----------/8-------|---------/8-----------/8-------|
|-------------------------------|-------------------------------|
|-------------------------------|-------------------------------|
|-------------------------------|-------------------------------|
         ah            ah                 ah            ah
         ah            ah                 ah            ah

The slow part( ) Gtr. 1
let ring
|-------------------------|-------------------------|-------------------------|-------------------------|
|---------4-----------4---|---------4-----------4---|---------4-----------4---|--------4-----------3----|
|------2----------2-------|------2----------2-------|------2----------2-------|-----2--------------2----|
|--------------1----------|--------------0----------|--------------1----------|------------5---5---0----|
|--0----------------------|--0----------------------|--0----------------------|--0---------3---3---0----|
|-------------------------|-------------------------|-------------------------|-------------------------|
 I       can               feel   the wheel    but    I        can't            steer,
 I       can               see    the end       is    get -    ting             near

|-------------------------|-------------------------|-------------------------|---------------------------0-|
|------------4--------4---|---------4-----------4---|---------4-----------4---|--------4--------3---------0-|
|---------2--------2------|------2----------2-------|------2----------2-------|-----2-----------2-----------|
|---------------1---------|--------------0----------|--------------1----------|-----------5--5--0-----------|
|--3b--0------------------|--0----------------------|--0----------------------|--0--------3--3--0-----------|
|-------------------------|-------------------------|-------------------------|--------------------3b-0-----|
 when    my                thoughts   become   my    big  -   gest          fear
  I      won't             rest  un - til    my      head    is             clear

Rhy fig. 3 Gtr.1                    (end Rhy. fig. 3)
|-------------------------|-----------------------0--|
|-------------------------|-----------------------0--|
|-------------------------|--------------------------|
|------------3---------2--|--------------------------|
|------5-----------4------|--5---5---7---5b----------|
|--6------------5---------|--3---3---5---3b---0------|
 Ah                         what's the difference I'll die

w/Rhy. Fig. 3 (twice)
In this sick world of mine

2nd time through
Interlude
Rhy. Fig. 4 Gtr. 1
(end Rhy. fig. 4)
|---------------------|-----------------------|-----------------------|-----------------------|
|---------------------|-----------------------|-----------------------|-----------------------|
|--------4------------|-------------------3---|--------4--------------|-----------------3-----|
|-----4-----------4---|--------4--------------|-----4--------------4--|--------4--------------|
|--2-----------2------|-----2---------3-------|--2------------2-------|-----2--------4--------|
|-----------0---------|--3---------2----------|------------3----------|--3--------2-----------|

w/Rhy. Fig. 4 (3 1/2 times)
Can you see the end?
Choke on me my friend
Must to drown these thoughts
Purity over rot

Rhy. Fig. 5 Gtr. 1
(end Rhy. fig. 5)
|-----------------------|-----------------------|-----------------------|-----------------------|
|-----------------------|-----------------------|-----------------------|-----------------------|
|--------6--------------|--------5---------4----|--------6--------------|--------5--------------|
|-----6------------6----|-----------------------|-----4-------------6---|-----------4---2---2---|
|--4-----------4--------|-----6---------5-------|--4------------4-------|-----6-----4---2---2---|
|-----------5-----------|--4--------3-----------|-----------5-----------|--4--------2---0---0---|

(Rhy. fig. 5 is played twice under the guitar solo)

5.ROOSTER


intro, verse:

        A chord diagramF#5F#5     A5~Asus2
Eb- A chord diagramE MajorE  02-0----5--0--0-|
Bb- A chord diagramBB  02-0----5--0--0-|
F-- A chord diagramF#F# 00-0----7--3--3-|   repeat for duration of intro, 2 verses
Db- A chord diagramD MajorD  44-4----7--2--2-|   (Ain't found a way....leads me to nowhere)
Ab- A chord diagramA augmentedA  44-4----0--0--0-|
Eb- A chord diagramE MajorE  02-0----|-------|


pre-chorus:

A chord diagramBB       A chord diagramAsus2Asus2   A chord diagramF#5F#5             A chord diagramBB      A chord diagramAsus2Asus2
|-------0-------02-0----|-------|-------0-------|
0-------0-------02-0----|-------0-------0-------|
0-------3-------00-0----|-------0-------3-------|
4-------2-------44-4----|-------4-------2-------|
2-------0-------44-4----|-------2-------0-------|
|-------|-------02-0----|-------|-------|-------|
Here they come...               Yeah, here comes the Rooster...


chorus:

A chord diagramF#5F#5     A chord diagramAsus2Asus2   A chord diagramF#5F#5
02-0----0-------|--0----|
02-0----0-------|--0----|
00-0----3-------|--0----| repeated several times
44-4----2-------|--4----|
44-4----0---4320|--4----|
02-0----|-------0--0----|
   ^    ^          ^
   |    |          |
   |    CRUNCH!    OBCRUNCH!
   CRUNCH!
        You know he ain't gonna die...


"interlude riff":

A chord diagramF#5F#5     A chord diagramE MajorE       A chord diagramF#5F#5     A chord diagramAsus2Asus2
|-------|-------|-------|-------|
|-------|-------|-------|-------|
|-------|-------|-------|-------| repeat 2 more times
|-------|-------|-------|-------|
2124----4--2--4-1-------|-------|
2--2----0-------|20-----|-------|
                        ^
                        |
                       ********************************************
                       *This is the hardest part of the song...   *
                       *the guitar plays nothing here, even though*
                       *you ache to crunch out an Asus2!          *
                       ********************************************

Come out into another pre-chorus, chorus, verse, pre-chorus, chorus,
and then outro. Don't step on any mines while playing (even though
it'd be COOL!).


enjoy


             Rob Goggins  rob@praline.nrlssc.navy.mil


Here is the correct way to play this excellent song.  The other version is
terribly wrong.  You don't need any crazy alternate tunings besides the usual
1/2 step down.

Okay, here is the CORRECT way to play Rooster by Alice in Chains:


(As always, tune down 1/2 step!)


Intro:
     =

Guitar 1 (clean w/ chorus)     =


     A chord diagramF#F#  F#7add4         A chord diagramA augmentedA   A chord diagramAadd2Aadd2

e----2-2-0---0-0-0-0--|--5-5-0---0-0-0-0-----|
B----2-2-0---0-0-0-0--|--5-5-0---0-0-0-0-----|
G----3-3-3---3-3-3-3--|--6-6-6---6-6-6-6-----|
D----4-4-4---4-4-4-4--|--7-7-7---7-7-7-7-----|   (Repeat a couple of times)
A----4-4-4---4-4-4-4--|--7-7-7---7-7-7-7-----|
E----2-2-2---2-2-2-2--|--5-5-5---5-5-5-5-----|


1st verse:

Guitar 1 repeats intro

Guitar 2 (w/ dist. & envelope filter) plays:

                           (fdbk)
e--------|-----|-----|-----|-----|-----|-----|-----|-----|-----------|
B--------|-----|-----|-----|-----|-----|-----|-----|-----|-----------|
G---6~~~~|~~~~~|~~~~~|~~~~~|~(6)~|~~~~~|~(6)~|~~~~~|~~~~~|~~~--------|
D--------|-----|-----|-----|-----|-----|-----|-----|-----|-----------|
A--------|-----|-----|-----|-----|-----|-----|-----|-----|---4--3--2-|
E--------|-----|-----|-----|-----|-----|-----|-----|-----|-----------|

e-------------|--------|---------|--5~~~-------|--5------|-----------------|
B-------------|--------|----7~~~~|---------5-7-|----7----|--(7)~~~---------|
G-------------|--------|---------|--2~~~-------|--2------|-----------------|
D-------4~~~~~|--------|--4------|---------2-4-|----4----|--(4)~~~---------|
A-------------|--------|---------|-------------|---------|-----------------|
E--5-2--------|---5~~~~|---------|-------------|---------|-----------------|


Chorus:

(I'm getting lazy, so you'll have to figure out the strumming by yourself=
=2E)
(It's not hard!)

   A chord diagramBB   A chord diagramD MajorD                  F#7ADD4/E    A chord diagramF#F#     B/F#

e--7---10---X-X---         ---0--------2----------------------|
B--7---10---X-X---         ---0--------2-------4--------------|
G--8---11---X-X---         ---3--------3-------4--------------|
D--9---12---X-X---         ---4--------4-------4--------------|
A--9---12---X-X---         ---4--------4-------2--------------|
E--7---10---------         ---0--------2-------2--------------|


Then repeat the first A chord diagramBB & A chord diagramD MajorD part, then this:

e--------0~~--|------------------|--------0~~---|-----5--(5)~~--|
B--------0~~--|------------------|--------0~~---|-----5--(5)~~--|
G--------3~~--|--2---------------|--------3~~---|--2--2--(2)~~--|
D-----4--4~~--|--2---------------|--2-----4~~---|--2--2--(2)~~--|
A--2--4--4~~--|--0--4~~-3~~-2~~--|--0--4--4~~---|--0--0--(0)~~--|
E--0--2--2~~--|------------------|-----2--2~~---|---------------|


Interlude:

e---------------|-------------|--------------|------------------------|
B---------------|-------------|--------------|------------------------|
G--4--3--4--4/6-|--6--4--4/6--|--3-----------|--4--3--4--4/6--6--6/9--|
D---------------|-------------|-----4--2--2--|------------------------|
A--2--1--2--2/4-|--4--2--2/4--|--1-----------|--2--1--2--2/6--4--4/7--|
E---------------|-------------|-----2--0--0--|------------------------|

e-----------------|-------------|
B-----------------|-------------|
G--9--9/11--9--11-|--14--11--9--|
D-----------------|-------------|
A--7--7/9---7--9--|--12--9---7--|
E-----------------|-------------|

2nd verse:
       fdbk

e----|-------|----|----------|------|--------|--14---------|----------------|
B----|-------|----|--17--14--|--17--|--(17)--|--------17~~-|-14---14~~------|
G----|-------|----|----------|------|--------|-----14------|-14-------------|
D--4-|--(4)--|----|----------|------|--------|-------------|----17----------|
A--4-|--(4)--|----|----------|------|--------|-------------|----------------|
E--2-|--(2)--|----|----------|------|--------|-------------|----------------|

e------------|-------------------------|----------------------------|---------|
B--14'-------|-------------------------|----------------------------|----17~~-|
G--14'-------|-------14----------14----|-------14----16----14-16/18-|-18------|
D------16~~~-|-14-16----16-14-16----16-|-14-16----16----16----------|---------|
A------------|-------------------------|----------------------------|---------|
E------------|-------------------------|----------------------------|---------|


Outro:
                           1/2             ALL BENDS 1/2
e--X--------|----|-16-17-16'`16--|-14------------------------------|----|------|
B----X------|----|---------------|-----16'`(16)-16'-16'-16'`(16)'--|-14-|-(14--|
G------X----|----|---------------|---------------------------------|----|------|
D--------4--|----|---------------|---------------------------------|----|------|
A--------4--|----|---------------|---------------------------------|----|------|
E--------2--|----|---------------|---------------------------------|----|------|
and that's it...


        -Will


Okay, here is the CORRECT way to play Rooster by Alice in Chains:
=0D

(As always, tune down 1/2 step!)
=0D

Intro:
     =

Guitar 1 (clean w/ chorus)     =

=0D
     A chord diagramF#F#  F#7add4         A chord diagramA augmentedA   A chord diagramAadd2Aadd2
=0D
e----2-2-0---0-0-0-0--|--5-5-0---0-0-0-0-----|
B----2-2-0---0-0-0-0--|--5-5-0---0-0-0-0-----|
G----3-3-3---3-3-3-3--|--6-6-6---6-6-6-6-----|
D----4-4-4---4-4-4-4--|--7-7-7---7-7-7-7-----|   (Repeat a couple of times=
)
A----4-4-4---4-4-4-4--|--7-7-7---7-7-7-7-----|
E----2-2-2---2-2-2-2--|--5-5-5---5-5-5-5-----|
=0D

1st verse:
=0D
Guitar 1 repeats intro
=0D
Guitar 2 (w/ dist. & envelope filter) plays:
=0D
                           (fdbk)
e--------|-----|-----|-----|-----|-----|-----|-----|-----|-----------|
B--------|-----|-----|-----|-----|-----|-----|-----|-----|-----------|
G---6~~~~|~~~~~|~~~~~|~~~~~|~(6)~|~~~~~|~(6)~|~~~~~|~~~~~|~~~--------|
D--------|-----|-----|-----|-----|-----|-----|-----|-----|-----------|
A--------|-----|-----|-----|-----|-----|-----|-----|-----|---4--3--2-|
E--------|-----|-----|-----|-----|-----|-----|-----|-----|-----------|
=0D
e-------------|--------|---------|--5~~~-------|--5------|----------|
B-------------|--------|----7~~~~|---------5-7-|----7----|--(7)~~~--|
G-------------|--------|---------|--2~~~-------|--2------|----------|
D-------4~~~~~|--------|--4------|---------2-4-|----4----|--(4)~~~--|
A-------------|--------|---------|-------------|---------|----------|
E--5-2--------|---5~~~~|---------|-------------|---------|----------|
=0D


Chorus:
=0D
(I'm getting lazy, so you'll have to figure out the strumming by yourself=
=2E)
(It's not hard!)
=0D
   A chord diagramBB   A chord diagramD MajorD                  F#7ADD4/E    A chord diagramF#F#     B/F#
=0D
e--7---10---X-X---         ---0--------2----------------------|
B--7---10---X-X---         ---0--------2-------4--------------|
G--8---11---X-X---         ---3--------3-------4--------------|
D--9---12---X-X---         ---4--------4-------4--------------|
A--9---12---X-X---         ---4--------4-------2--------------|
E--7---10---------         ---0--------2-------2--------------|
=0D

Then repeat the first A chord diagramBB & A chord diagramD MajorD part, then this:
=0D
e--------0~~--|------------------|--------0~~---|-----5--(5)~~----------------|
B--------0~~--|------------------|--------0~~---|-----5--(5)~~----------------|
G--------3~~--|--2---------------|--------3~~---|--2--2--(2)~~----------------|
D-----4--4~~--|--2---------------|--2-----4~~---|--2--2--(2)~~----------------|
A--2--4--4~~--|--0--4~~-3~~-2~~--|--0--4--4~~---|--0--0--(0)~~----------------|
E--0--2--2~~--|------------------|-----2--2~~---|---------------------------0-|

Interlude:
=0D
e---------------|-------------|--------------|------------------------|
B---------------|-------------|--------------|------------------------|
G--4--3--4--4/6-|--6--4--4/6--|--3-----------|--4--3--4--4/6--6--6/9--|
D---------------|-------------|-----4--2--2--|------------------------|
A--2--1--2--2/4-|--4--2--2/4--|--1-----------|--2--1--2--2/6--4--4/7--|
E---------------|-------------|-----2--0--0--|------------------------|
=0D
e-----------------|-------------|
B-----------------|-------------|
G--9--9/11--9--11-|--14--11--9--|
D-----------------|-------------|
A--7--7/9---7--9--|--12--9---7--|
E-----------------|-------------|
=0D


2nd verse:
       fdbk                                                           =

e----|-------|----|----------|------|--------|--14---------|----------------|
B----|-------|----|--17--14--|--17--|--(17)--|--------17~~-|-14---14~~------|
G----|-------|----|----------|------|--------|-----14------|-14-------------|
D--4-|--(4)--|----|----------|------|--------|-------------|----17----------|
A--4-|--(4)--|----|----------|------|--------|-------------|----------------|
E--2-|--(2)--|----|----------|------|--------|-------------|----------------|
=0D
e------------|-------------------------|----------------------------|---------|
B--14'-------|-------------------------|----------------------------|----17~~-|
G--14'-------|-------14----------14----|-------14----16----14-16/18-|-18------|
D------16~~~-|-14-16----16-14-16----16-|-14-16----16----16----------|---------|
A------------|-------------------------|----------------------------|---------|
E------------|-------------------------|----------------------------|---------|
=0D

Outro:
                           1/2             ALL BENDS 1/2
e--X--------|----|-16-17-16'`16--|-14------------------------------|----|------|
B----X------|----|---------------|-----16'`(16)-16'-16'-16'`(16)'--|-14-|-(14--|
G------X----|----|---------------|---------------------------------|----|------|
D--------4--|----|---------------|---------------------------------|----|------|
A--------4--|----|---------------|---------------------------------|----|------|
E--------2--|----|---------------|---------------------------------|----|------|

6.JUNKHEAD


INTRO:  RIff 1 w/ ad lib intro vocal


RIFF 1:

       A chord diagramB5B5  A chord diagramBb5Bb5    A chord diagramBb5Bb5 A chord diagramG5G5  A chord diagramF#5F#5   A chord diagramF5F5   A chord diagramF5F5  A chord diagramE5E5
|-----------------------------------------------|
|-----------------------------------------------|
|------4---3------3-----------------------------|
|------4---3------3---5---4-----3-----3---2-----|
|------2---1------1---5---4-----3-----3---2-----|
|---------------------3---2-----1-----1---0-----|

       A chord diagramB5B5  A chord diagramBb5Bb5    A chord diagramBb5Bb5 A chord diagramG5G5  A chord diagramF#5F#5   A chord diagramF5F5   A chord diagramF5F5  A chord diagramE5E5   A chord diagramE5E5
|-----------------------------------------------|
|-----------------------------------------------|
|------4---3------3-----------------------------|
|------4---3------3---5---4-----3-----3---2---2-|
|------2---1------1---5---4-----3-----3---2---2-|
|---------------------3---2-----1-----1---0---0-|

       A chord diagramB5B5  A chord diagramBb5Bb5    A chord diagramBb5Bb5 A chord diagramG5G5  A chord diagramF#5F#5   A chord diagramF5F5   A chord diagramF5F5  A chord diagramE5E5
|-----------------------------------------------|
|-----------------------------------------------|
|------4---3------3-----------------------------|
|------4---3------3---5---4-----3-----3---2-----|
|------2---1------1---5---4-----3-----3---2-----|
|---------------------3---2-----1-----1---0-----|

                                       end Riff 1
       A chord diagramB5B5  A chord diagramBb5Bb5    A chord diagramBb5Bb5 A chord diagramG5G5  A chord diagramF#5F#5   A chord diagramF5F5   A chord diagramF5F5  A chord diagramE5E5
|-----------------------------------------------|
|-----------------------------------------------|
|------4---3------3-----------------------------|
|------4---3------3---5---4-----3-----3---2-----|
|------2---1------1---5---4-----3-----3---2-----|
|---------------------3---2-----1-----1---0-----|


VERSE 1:  Riff 2 w/ lyrics


RIFF 2:

|-----------------------------------------------|
|-----------------------------------------------|
|-----------------------------------------------|
|-----------------------------------------------|
|------2---1------1-----------------------------|
|---------------------3~--2-----1-----1---0-----|
       palm mute slightly

|-----------------------------------------------|
|-----------------------------------------------|
|-----------------------------------------------|
|-----------------------------------------------|
|------2---1------1-----------------------------|
|---------------------3~--2-----1-----1---0-----|


|-----------------------------------------------|
|-----------------------------------------------|
|-----------------------------------------------|
|-----------------------------------------------|
|------2---1------1-----------------------------|
|---------------------3~--2-----1-----1---0-----|

                                       end Riff 2
|-----------------------------------------------|
|-----------------------------------------------|
|-----------------------------------------------|
|-----------------------------------------------|
|------2---1------1-----------------------------|
|---------------------3~--2-----1-----1---0-----|


CHORUS:

   A chord diagramA5A5        A chord diagramC5C5                   A chord diagramG5G5        A chord diagramF5F5
|------------------------------|------------------------------------------|
|------------------------------|------------------------------------------|
|--2--2--2---5-----------------|--0--0--0---------------------------------|
|--2--2--2---5-----------------|--0--0--0---3----------3--2--0-----0------|
|--0--0--0---3------------X-X--|--X--X--X---3-------------------3---------|
|-------------------------X-X--|--3--3--3---1-------------------------3~--|

                                             A chord diagramA5A5        A chord diagramC5C5                   A chord diagramG5G5        A chord diagramF5F5
|------------------------------|------------------------------------------|
|------------------------------|------------------------------------------|
|--2--2--2---5-----------------|--0--0--0---------------------------------|
|--2--2--2---5-----------------|--0--0--0---3----------3--2--0-----0------|
|--0--0--0---3------------X-X--|--X--X--X---3-------------------3---------|
|-------------------------X-X--|--3--3--3---1-------------------------3~--|


   A chord diagramA5A5        A chord diagramC5C5                   A chord diagramG5G5        A chord diagramF5F5
|------------------------------|------------------------------------------|
|------------------------------|------------------------------------------|
|--2--2--2---5-----------------|--0--0--0---------------------------------|
|--2--2--2---5-----------------|--0--0--0---3----------3--2--0-----0------|
|--0--0--0---3------------X-X--|--X--X--X---3-------------------3---------|
|-------------------------X-X--|--3--3--3---1-------------------------3~--|


   A chord diagramA5A5        A chord diagramC5C5                   A chord diagramG5G5        A chord diagramF5F5
|------------------------------|------------------------------------------|
|------------------------------|------------------------------------------|
|--2--2--2---5-----------------|--0--0--0---------------------------------|
|--2--2--2---5-----------------|--0--0--0---3----------3--2--0-----0------|
|--0--0--0---3------------X-X--|--X--X--X---3-------------------3---------|
|-------------------------X-X--|--3--3--3---1-------------------------3~--|


VERSE 2: Riff 1 w/ lyrics


VERSE 3: Riff 2 w/ lyrics


CHORUS


INTERLUDE: guitar plays harmonized solo while bass plays Chorus.


Solo:

|-------------------------------------|
|---------------8----------8--8--10---|
|------------9------------------------|
|--7---7--7---------------------------|
|-------------------------------------|
|-------------------------------------|
                                            repeat 4x
|---------------------------------------------------|
|---8------8--8--10---------------------------------|
|--------------------10------10--9--7------7--------|
|--------------------------------------10-----------|
|---------------------------------------------10----|
|---------------------------------------------------|


RIFF 1: w/ ad lib intro vocals


VERSE 4: w/ Riff 2 and lyrics


CHORUS


OUTRO:  Riff 1 w/ lyrics

*************************


Intro
-----------------------------------------------------------------------|e
-----------------------------------------------------------------------|A chord diagramBB
------5--4-----4-------------------------------------------------------|A chord diagramG+G
------5--4-----4--5----4--3----3--5------------------------------------|A chord diagramD MajorD
------3--2-----2--5----4--3----3--5------------------------------------|A chord diagramA augmentedA
-------------------3----2--1----1--3-----------------------------------|A chord diagramE MajorE
                Repeat 4x


Verse
-----------------------------------------------------------------------|e
-----------------------------------------------------------------------|A chord diagramBB
-----------------------------------------------------------------------|A chord diagramG+G
-----------------------------------------------------------------------|A chord diagramD MajorD
------3--2-----2-------------------------------------------------------|A chord diagramA augmentedA
-------------------3----2--1----1--3-----------------------------------|A chord diagramE MajorE
                Repeat 4x   (palm mute slightly)


Chorus
(F#,B,A,G)

F#/B/A
A chord diagramG+G                           F#/B/A
A chord diagramG+G                       F#/B/A
A chord diagramG+G               F#/B/A
A chord diagramG+G               F#/B/A


Verse
-----------------------------------------------------------------------|e
-----------------------------------------------------------------------|A chord diagramBB
------5--4-----4-------------------------------------------------------|A chord diagramG+G
------5--4-----4--5----4--3----3--5------------------------------------|A chord diagramD MajorD
------3--2-----2--5----4--3----3--5------------------------------------|A chord diagramA augmentedA
-------------------3----2--1----1--3-----------------------------------|A chord diagramE MajorE

The verse goes back to these chords 4x and then to the root notes for the
chords 4x.


Solo

-----------------------------------------------------------------------|e
-----------------------------------------------------------------------|A chord diagramBB
-----------8-11---11-11-13-11----11-11-13-9----9-8-6-4-----------------|A chord diagramG+G
-6---6-6-------------------------------------------------------7-5-----|A chord diagramD MajorD
-----------------------------------------------------------------------|A chord diagramA augmentedA
-----------------------------------------------------------------------|A chord diagramE MajorE
                Repeat 4x

7.DIRT

down a half step (Eb,Ab...)
play riff 1 four times then riff 2


riff 1                                 riff 2
------------------------------------|-----------------------------------------|
------------2h3--2------------------|--------2h3------------------------------|
-2h3p2-----------------2h3p2--------|2h3p2---------9-9/10-107-7---------------|
----------------------------------5-|-----------------------------------------|
-------0----------------------0-----|------0-------7-7/-8--85-5p0-------------|
------------------------------------|-----------------------------------------|


verse riff:

------------------------------------|-------------------------------------|---|
------------------------------------|-------------------------------------|---|
--------6/76---------------2-------|---------6/76/12--12/14-14/15---12--|-----|
-----2----------------------2----0--|-------2-----------------------------|---|
0h1--0--4/54----0----0h1---0-------|0h1----0-4/54/10--10/12-12/13---10--|-----|
---------------------------------3--|-----------------------------------------|


--------------------------------------------------------------------------|---|
--------------------------------------|------------------------------------|--|
-----------6/76---------------2------|---------6/76----9--9/10-107--7---|-----|
-------2-----------------------2---0--|-----2------------------------------|--|
--0h1--0---4/54---0---0h1-----0------|0h1--0---4/54----7--7/-8--85--5p0-|-----|
-----------------------------------3--|------------------------------------|--|

for the chorus I just have time to put up the chords if you need the notes
let me know.


A chord diagramA5A5       A chord diagramBb5Bb5    A chord diagramCadd9Cadd9          A chord diagramA5A5       A chord diagramBb5Bb5      A chord diagramC7C7           A chord diagramA5A5       A chord diagramBb5Bb5

   A chord diagramCadd9Cadd9               A chord diagramA5A5       A chord diagramBb5Bb5     A chord diagramCadd9Cadd9


this is a real quick job of the solo: (b=bend)
----------------------------------------|----------------------------------5--|
7bendhold--7-7-7-7-7-7-7-7-7-7-7-7-7-7-7|--------------------------------4--8-|
7holdbend--7-7-7-7-7-7-7-7-7-7-7-7-7-7-7|-7bp5---5b-----------------57b-------|
----------------------------------------|--------------7-5--7--5h7------------|
----------------------------------------|-------------------------------------|
----------------------------------------|-------------------------------------|

--------------------------------|---------------|----------------------------|
----8---------------------------|---------------|---20b----20b----20b17------|
--------5--7-7bp5------5b-------|---------------|-----------------------19---|
--------------------7------7--7-|---------------|-2--------------------------|
--------------------------------|-----3----3-4b-|-0--------------------------|
--------------------------------|3h5----5-------|----------------------------|

-20b---20b----20bp17-------17----|--------------------------------------------|
----------------------20-----20b-|--------------------------------------------|
---------------------------------|1917--17-1716-16---1614-14-14129-9----------|
---------------------------------|--------------------------------------------|
---------------------------------|1715--15-1514-14---1412-12-12107-9----------|
---------------------------------|--------------------------------------------|

-----------------------------------|  Well, That's basically it Please if there
--2-3/5--3-2-----------------------|  are any corrections or change ideas feel
---------------2-------------------|  free to mail me or post changes.
------------------2----------------|  -Fred
------------------0------000-------|
-----------------------------------|

8.GODSMACK

A chord diagramEb MajorEb tuning (as usual)

Rhy. fig. 1  Gtr. 1
(end Rhy. fig. 1)
|--------------------------|--------------------|--------------------------|-------------------|
|--------------------------|--------------------|--------------------------|-------------------|
|--------------------------|--------------------|--------------------------|-------------------|
|--2--3--2-----------------|-----------------4--|--2--3--2-----------------|--------------5----|
|--1--1--1--4--3--4--3--4--|--2--2--3--3--4--2--|--1--1--1--4--3--4--3--4--|--2--2--3--3--3--5-|
|-----------2--2--2--2--2--|--0--0--1--1--2-----|-----------2--2--2--2--2--|--0--0--1--1-----3-|
 P.M.......................................      P.M....................................

Verses (Rhy. fig. 1 4 times w/1 & 2; 2 times w/3
1. Care not for the men who wonder, straw that broke your back, you're under
   Cast all them aside who care, empty eyes and dead end stare
2. For the horse you've grown much fonder, than for me, that I don't ponder
   As the heir of one who bit you.  Smiling bite your own self too.
3. So be yearning all your life, twisting turning like a knife


Pre-chorus
Rhy. fig. 2  Gtr. 1
(end Rhy. Fig. 2)
|-------------------------|-----------------------|-------------------------|---------------------|
|-------------------------|-----------------------|-------------------------|---------------------|
|-------------------------|-----------------------|-------------------------|---------------------|
|-------------------------|-------------5--4------|-------------------------|-------------------4-|
|--3--4--3--4--2--2--2--2-|-2--2--2--2--3--2------|--3--4--3--4--2--2--2--2-|-2--2--2--2--2--2--2-|
|--2--2--2--2--0--0--0--0-|-0--0--0--0---------0--|--2--2--2--2--0--0--0--0-|-0--0--0--0--0--0----|
 P.M..................................             P.M.........................................

Play Rhy. fig. 2 twice with these:
1. Don't you know that none are blind, to the lie and you think I don't find
2. And I think that you're not blind, to the ones you left behind
3. Now you know the reasons why, can't get high, or you will die.

|------------------------|---------------------|
|------------------------|---------------------|
|------------------------|---------------------|
|------------------------|---------------------|
|--4--5---------------5--|---7----7----7----7--|
|--2--3---------------3--|---5----5----5----5--|

1. What you hide
2. I'll be here
3. Or you'll die


Chorus
Rhy. fig. 3 Gtr. 1 w/wah               (end Rhy. fig. 3)
|--7--7--7---7---7--------|--7--7--7---7---7--7--------|
|--7--7--7---7---7--7--9--|--7--7--7---7---7--7--------|
|--7--7--7---7---7--7--9--|--7--7--7---7---7--7--10----|
|-------------------------|----------------------10----|
|-------------------------|-----------------------8----|
|-------------------------|-----------------------8----|

Rhy. fig. 3 four times with this:
1., 2., 3.  What in God's name have you done?  Stick your arm for some real fun.


Solo (w/Rhy. fig. 1 twice)
                   A.H...        A.H....
|------------------------------|--------------------------------|-------------------2----------|
|------------------------------|-----------------6--------------|-------------------2----------|
|---------9/12-----------------|------------9b(10)--(9)b(11)----|--------2-------------X-X-X-X-|
|--X-X-7-----------9b(11)------|--7b(9)-------------------------|----2h3----X-X-2h4----X-X-X-X-|
|--X-X-7--------8-----------7--|--7------7----------------------|------------------------------|
|------------------------------|--------------------------------|------------------------------|
               P.M.        P.M.         P.M.

|------(2)--------------------------|--------12-13-14b(17)------------r(14)b(16)--|
|------(2)--------------------------|-----14--------------------------------------|
|-------2-h-4b(6)r(4)b(6)-------r(4)/13-------------------------------------------|
|--2h4------------------------------|---------------------------------------------|
|-----------------------------------|---------------------------------------------|
|-----------------------------------|---------------------------------------------|

|-r(14)---14p13p12------------------|----------------------------------|---------------------|
|------------------12~~~~~----------|--------10-12b(14)--10~~~~~~------|--147~~~~------------|
|--------------------------14~~~~~~~|-(9)/11----------------------0/11-|-------------9~~~~~--|
|-----------------------------------|----------------------------------|---------------------|
|-----------------------------------|----------------------------------|---------------------|
|-----------------------------------|----------------------------------|---------------------|

Rhy. fig. 3 (3 1/2 times) with:
3.  So your sickness weighs a ton, and God's name is smack for some.

End with
|--7--7--7---7---7-----------|
|--7--7--7---7---7-----------|
|--7--7--7---7---7-----------|
|-------------------7--------|
|-------------------7--------|
|----------------------------|
w/wah

9.INTRO

Don't Know

10.HATE TO FEEL


Tuning Eb,Ab,Db,Gb,Bb,Eb.

Intro/Verse

1---------------------------------|
2---------------------------------|
3---------------------------------|
4---6--5--4-----------------------|
5---7--6--5-----6--5--4-----------|
6---------------7--6--5--0-3~~~~~-|


Pre Chorus

1----------------------------|
2----------------------------|
3------3------3--------------|             X4
4--2-2-3--2-2-3--------------|
5--2-2-1--2-2-1--------------|
6--0-0----0-0----------------|

then A chord diagramA augmentedA pick scrape, then

1---------------------------|
2---------------------------|
3---------------------------|    X4
4--2-2-8--2-2-8-------------|
5--2-2-8--2-2-8-------------|
6--0-0-6--0-0-6-------------|(5)-(5)

Then The Next part goes

1----------------------------------|
2----------------------------------|
3------------------3-3-3-3-3-------|
4--2-2-2-2-3-3-3-3-3-3-3-3-3-2-2-2-|
5--2-2-2-2-3-3-3-3-1-1-1-1-1-2-2-2-|
6--0-0-0-0-1-1-1-1-----------0-0-0-|

then the "wish I couldn't feel at all" part goes

1------------------------|
2------------------------|
3--------------3---------|        And That repeats a few times
4--2-2-2-2-2-2-3---------|
5--2-2-2-2-2-2-1---------|
6--0-0-0-0-0-0-----------|


This is the end of hate to feel
1--------------------------------------------------------|
2-12-12-12-12-12-12-12-12-12-12-12-12--------------------|
3-12-12-12-12-12-12-12-12-12-12-12-12--------------------|
4--------------------------------------------------------|
5--------------------------------------------------------|
6--------------------------------------------------------|


There you are. Once again, I don't feel like figuring out the solo
Waltb@netcom.ca





There's a couple of things in this song that are missing from the
previous tab. I learned them listening to a live version of Hate To Feel.


1st part of pre-chorus
1-15-12-----------------------------|
2-----------------------------------|
3-------14 (bend up to 15th)played--| x4
4-----------------------------------|
5-----------------------------------|
6-----------------------------------|


Chorus (Wish I couldn't feel at all)
1------------------------|
2------------------------|
3----------12(bend to 14-|
4----12-14----14-12------|
5-14---------------------|
6------------------------|

They are hard to pick out but they are there.



A chord diagramA augmentedA few more corrections for Hate To Feel.

Pre-Chorus.
HyE-------------------|
B---------------------|
G---------------------|
D---2-2------2-2------|
A---2-2-5(A chord diagramBB)-2-2-5(A chord diagramBB)-|
LoE-0-0-6(A chord diagramBB)-0-0-6(A chord diagramBB)-|


Chorus: Same thing except you play the harmonic
on the 5th fret of the low A chord diagramE MajorE string.

11.ANGRY CHAIR


INTRO + VERSE
Play this riff several times

e    ---------------|
A chord diagramBB    ---------------|
A chord diagramG+G    ---------------|
A chord diagramD MajorD    ---------------|
A chord diagramA augmentedA    -----2-----3b--|
A chord diagramE MajorE    --0-----0------|

In the intro Jerry strums an A chord diagramE5E5 chord every few beats

e    --0-0-0--|
A chord diagramBB    --0-0-0--|
A chord diagramG+G    --x-x-x--|
A chord diagramD MajorD    --2-2-2--|
A chord diagramA augmentedA    --2-2-2--|
A chord diagramE MajorE    --0-0-0--|


BRIDGE
Layne & Scott play this

       A chord diagramF5F5	    A chord diagramE5E5
e    --------------------------|
A chord diagramBB    --------------------------|
A chord diagramG+G    --------------------------|
A chord diagramD MajorD    --3--3--3--3---2--2-------|
A chord diagramA augmentedA    --3--3--3--3---2--2-------|
A chord diagramE MajorE    --1--1--1--1---0--0---5b--|
       What do I see 'cross the way ... Hey...

Jerry plays the straight chords below

       A chord diagramFF	    A chord diagramE MajorE
e    --1--1--1--1---0--0-------|
A chord diagramBB    --1--1--1--1---0--0-------|
A chord diagramG+G    --2--2--2--2---1--1-------|
A chord diagramD MajorD    --3--3--3--3---2--2-------|
A chord diagramA augmentedA    --3--3--3--3---2--2-------|
A chord diagramE MajorE    --1--1--1--1---0--0---5b--|


CHORUS

       A chord diagramA5A5  A chord diagramB5B5        A chord diagramF#5F#5         A chord diagramG5G5
e    -------------------|------------------|
A chord diagramBB    -------------------|------------------|
A chord diagramG+G    --2---4---4--4-----|------------------|
A chord diagramD MajorD    --2---4---4--4--4--|--4--4--5---5--5--|
A chord diagramA augmentedA    --0---2---2--2--4--|--4--4--5---5--5--|
A chord diagramE MajorE    ----------------2--|--2--2--3---3--3--|
       I don't mind yeah...

       A chord diagramA5A5	A chord diagramB5B5	    A chord diagramE MajorE
e    --------------------|--0--0-0------------|
A chord diagramBB    --------------------|--0--0-0------------|
A chord diagramG+G    --2--2--2--4--4--4--|--1--1-1------------|
A chord diagramD MajorD    --2--2--2--4--4--4--|--2--2-2------------|
A chord diagramA augmentedA    --0--0--0--2--2--2--|--2--2-2------------|
A chord diagramE MajorE    --------------------|--0--0-0--5b-5b-5b--|


SOLO

e    -----------------------|---------------------------------------------|
A chord diagramBB    -----------------------|------8---8---8-11b-11b--10-10p8---8---------|
A chord diagramG+G    --------------7-s9-9v--|--7h9---9---9--------------------9---9-7h9v--|
A chord diagramD MajorD    ------5-7-7s9----------|---------------------------------------------|
A chord diagramA augmentedA    --5h7------------------|---------------------------------------------|
A chord diagramE MajorE    -----------------------|---------------------------------------------|

e    -----------------|------------------------------------------|
A chord diagramBB    -----------------|------------------------------------------|
A chord diagramG+G    --9p7-7----------|------------------------------------------|
A chord diagramD MajorD    --------9-9p7-5--|--7b-7b-7br5------------------------------|
A chord diagramA augmentedA    -----------------|-------------7-5h7-7-7--5---5---5-5h7-7v--|
A chord diagramE MajorE    -----------------|--------------------------7---7-----------|

e    -----------------------|-----------------------10-------|
A chord diagramBB    -----------------------|----7-8-10-11-11b-11b------11r--|
A chord diagramG+G    --------------7-s9-9v--|--9-----------------|-----------|
A chord diagramD MajorD    ------5-7-7s9----------|-------------------hold---------|
A chord diagramA augmentedA    --5h7------------------|-------------------bend---------|
A chord diagramE MajorE    -----------------------|--------------------------------|

e    -------------------------------------|----------------|
A chord diagramBB    --8-10-8-7-8--7h8-7--8-7-------------|----------------|
A chord diagramG+G    -------------------------9-7-9v--7v--|--7-------------|
A chord diagramD MajorD    -------------------------------------|----9-7-5-7-7b--|
A chord diagramA augmentedA    -------------------------------------|----------------|
A chord diagramE MajorE    -------------------------------------|----------------|

12.DOWN IN A chord diagramA augmentedA HOLE


Riff A chord diagramA augmentedA
------

  A5add9
      A chord diagramA minorAm                            A chord diagramDsus4Dsus4       A chord diagramD MajorD
|---------------------------------|-3-----------2-------------------|
|-0-t-1---------------1-----------|-----3---------------3-----------|
|---------2---------------2-------|---------2---------------2-------|
|-------------2---------------2---|-----------------------------0---|
|-----------------0---------------|---------------------------------|
|---------------------------------|---------------------------------|
| 1 e + a 2 e + a 3 e + a 4 e + a   1 e + a 2 e + a 3 e + a 4 e + a


Intro Solo (two guitars written for one)
----------

|---------------------------------|---------------------------------|
|-3-t-5---------------------------|---------------------------------|
|-4-t-5---------------------------|---------------------*-----------|
|---------------------------------|-4---5---4---2-----2g4---2-------|
|---------------------------------|-----------------------------3---|
|---------------------------------|---------------------------------|
  1 e + a 2 e + a 3 e + a 4 e + a   1 e + a 2 e + a 3 e + a 4 e + a

*grace note

|---------------------------------|----------------------------------|
|---------------------------------|--------------------3----5t6p5s3--|
|---------------------------------|---------2-t-4-t-5--4----5t7p5s4--|
|-----------------------------2---|-4-t-5----------------------------|
|-0-------------------0---3-------|----------------------------------|
|---------------------------------|----------------------------------|
  1 e + a 2 e + a 3 e + a 4 e + a   1 e + a 2 e + a 3 e + a 4 p t + a

|---------------------------------|---------------------------------|
|-3-t-5---------------------------|---------------------------------|
|-4-t-5---------------------------|---------------------------------|
|---------------------------------|-4---5---4---2-------------------|
|---------------------------------|---------------------------------|
|---------------------------------|---------------------------------|
  1 e + a 2 e + a 3 e + a 4 e + a   1 e + a 2 e + a 3 e + a 4 e + a

|---------------------------------|---------------------------------|
|-7-b-8-b-7-------5-t-7---5-------|-3-t-5---3-----------------------|
|-7-b-9-b-7-------5-t-7---5-------|-4-t-5---4---4-t-5-b-7-b-5---4---|
|---------------------------------|-------------5-t-7-b-9-b-7---5---|
|---------------------------------|---------------------------------|
|---------------------------------|---------------------------------|
  1 e + a 2 e + a 3 e + a 4 e + a   1 e + a 2 e + a 3 e + a 4 e + a

|---------------------------------|
|---------------------------------|
|-5-------------------------------|
|-7-------------------------------|
|---------------------------------|
|---------------------------------|
  1 e + a 2 e + a 3 e + a 4 e + a


Riff A chord diagramBB
------
  A chord diagramA5A5                          A chord diagramG5G5                A chord diagramD5D5
|-----------------------------3---|-3---3-------2-------------------|
|-----------------------------3---|-3-------3---3-------------------|
|-----------------------------0---|-0-----------2-------------------|
|-9---10--9---7---------------0---|-0-----------0-------------------|
|-0---0---0---0---------------x---|-x-----------0-------------------|
|-----------------------------3---|-3-------------------------------|
  1 e + a 2 e + a 3 e + a 4 e + a   1 e + a 2 e + a 3 e + a 4 e + a


Riff A chord diagramC majorC
------
  A chord diagramD5D5                          A chord diagramC majorC                 A chord diagramG+G
|-----------------------------0---|-0---0---------------0-----------|
|-----------------------------1---|-1-------3---3---3-------3-------|
|-9---10--9---7---------------0---|-0-----------0---0-----------0---|
|-0---0---0---0---------------2---|-2-----------0---0---------------|
|-----------------------------3---|-3-----------2---2---------------|
|---------------------------------|-------------3---3---------------|
  1 e + a 2 e + a 3 e + a 4 e + a   1 e + a 2 e + a 3 e + a 4 e + a

|-----------------------------0---|-0---0---------------0-----------|
|-----------------------------1---|-1-------3---3---3-------3-------|
|-9---10--9---7b9-7-----------0---|-0-----------0---0-----------0---|
|-0---0---0---0---0-----------2---|-2-----------0---0---------------|
|-----------------------------3---|-3-----------2---2---------------|
|---------------------------------|-------------3---3---------------|
  1 e + a 2 e + a 3 e + a 4 e + a   1 e + a 2 e + a 3 e + a 4 e + a


Riff A chord diagramD MajorD
------

  A chord diagramD5D5          A chord diagramE5E5      A chord diagramF5F5            A chord diagramC5C5
|---------------------------------|---------------------------------|
|-3-------------------------------|---------------------------------|
|-2-------------------------------|-5---5-----------------------5---|
|-0-----------2-------3-----------|-5---5-----------------------5---|
|-0-----------2-------3-----------|-3---3-----------------------3---|
|-------------0-------1-----------|---------------------------------|
  1 e + a 2 e + a 3 e + a 4 e + a   1 e + a 2 e + a 3 e + a 4 e + a

      A chord diagramG5G5                            A chord diagramA5A5  A chord diagramG5G5  A chord diagramF5F5
|---------------------------------|---------------------------------|
|---------------------------------|---------------------------------|
|-5-------------------------------|---------------------------------|
|-5---5---5-------------------5---|-5s7-5---3---3-------------------|
|-3---5---5-------------------5---|-5s7-5---3---3-------------------|
|-----3---3-------------------3---|-3s5-3---1---1-------------------|
  1 e + a 2 e + a 3 e + a 4 e + a   1 e + a 2 e + a 3 e + a 4 e + a

  A chord diagramA5A5
|---------------------------------|
|---------------------------------|
|-2-------------------------------|
|-2-------------------------------|
|-0-------------------------------|
|---------------------------------|
  1 e + a 2 e + a 3 e + a 4 e + a


Outro Solo A chord diagramA augmentedA
------------


|---------------------------------|---------------------------------|
|---------------------------------|---------------------------------|
|-7-b-9-----------b-----------7---|---------------------------------|
|---------------------------------|-4-t-5---4---2-----2g4---2-------|
|---------------------------------|-----------------------------3---|
|------------------

Other versions of Dirt Album

DirtTabs
Dirt (Ver. 2)Tabs

Almost there ...

Sign in to get your own page with links to favourite songs and more. You are just one click away...

Login with Facebook Login with Google