Guitar Tabs Explorer
Alice In Chains bass tabs for Damn that river

Damn That River bass tab by Alice In Chains

Alice In Chains bass tabs for Damn that river

Bass tabs

Album: Dirt (1992)
Bassist: Mike Starr


Tuning: Eb tuning (1/2 step down)

🏷Legend:
r = rest
/ = slide up
() = sustained note
INTRO (x4):
  6/4
Gb |-------------------------|-------------------------|
Db |-------------------------|-------------------------|
Ab |-------------------------|-------------------------|
Db |-3-4-5-0---5-6-7-6-5-3-0-|-3-4-5-0---5-6-7-6-5-3-r-|
   1 & 2 & 3 & 4 & 5 & 6 &  1 & 2 & 3 & 4 & 5 & 6 &


VERSE 1:
       (x7)
Gb |-------------------------||-------------------------|
Db |-------------------------||-------------------------|
Ab |-------------------------||-------------------------|
Db |-3-4-5-0---5-6-7-6-5-3-0-||-3-4-5-0---5-6-7-6-5-3-r-|
   1 & 2 & 3 & 4 & 5 & 6 &  1 & 2 & 3 & 4 & 5 & 6 &


CHORUS 1 (x4):

Gb |-------------------------|-------------------------|
Db |-------------------------|-------------------------|
Ab |-------------------------|-------------------------|
Db |-3-4-5-0---5-6-7-6-5-3-0-|-3-4-5-0---5-6-7-6-5-3-r-|
   1 & 2 & 3 & 4 & 5 & 6 &  1 & 2 & 3 & 4 & 5 & 6 &
VERSE 2:
       (x7)
Gb |-------------------------||-------------------------|
Db |-------------------------||-------------------------|
Ab |-------------------------||-------------------------|
Db |-3-4-5-0---5-6-7-6-5-3-0-||-3-4-5-0---5-6-7-6-5-3-r-|
   1 & 2 & 3 & 4 & 5 & 6 &  1 & 2 & 3 & 4 & 5 & 6 &


CHORUS 2:
             (x4)            2/4
Gb |-------------------------|-------------------------||---------|
Db |-------------------------|-------------------------||---------|
Ab |-------------------------|-------------------------||---------|
Db |-3-4-5-0---5-6-7-6-5-3-0-|-3-4-5-0---5-6-7-6-5-3-r-||-7-6-5-3-|
   1 & 2 & 3 & 4 & 5 & 6 &  1 & 2 & 3 & 4 & 5 & 6 &  1 & 2 &


GUITAR SOLO:
  4/4                 6/4
Gb |-----------------|-----------------|-------------------------|
Db |-----------------|-----------------|-------------------------|
Ab |-----------------|-5---------------|-------------------------|
Db |(3)3-3-3-3-3-3-3-|---5-3-5-3-0-0-0-|(0)0-0-0-0-0-0-0-7-6-5-3-|
   1 & 2 & 3 & 4 &  1 & 2 & 3 & 4 &  1 & 2 & 3 & 4 & 5 & 6 &

  4/4                 6/4
Gb |-----------------|-----------------|-------------------------|
Db |-----------------|-----------------|-------------------------|
Ab |-----------------|-5---------------|--/5-5-5-5-5-5-----------|
Db |(3)3-3-3-3-3-3-3-|---5-3-5-3-0-0-0-|(0)------------0-7-6-5-3-|
   1 & 2 & 3 & 4 &  1 & 2 & 3 & 4 &  1 & 2 & 3 & 4 & 5 & 6 &

  4/4        6/4
Gb |-----------------|-------------------------|-------------------------|
Db |-----------------|-------------------------|-------------------------|
Ab |-----------------|---------5---------------|-------------------------|
Db |(3)3-3-3-3-3-3-3-|-3-3-3-3---5-3-5-3-0-0-0-|(0)0-0-0-0-0-0-0-7-6-5-3-|
   1 & 2 & 3 & 4 &  1 & 2 & 3 & 4 & 5 & 6 &  1 & 2 & 3 & 4 & 5 & 6 &

  4/4        2/4
Gb |-----------------|---------|
Db |-----------------|---------|
Ab |-----------------|-5-------|
Db |(3)3-3-3-3-3-3-3-|---5-3-0-|
   1 & 2 & 3 & 4 &  1 & 2 &


VERSE 3:
       (x7)
Gb |-------------------------||-------------------------|
Db |-------------------------||-------------------------|
Ab |-------------------------||-------------------------|
Db |-3-4-5-0---5-6-7-6-5-3-0-||-3-4-5-0---5-6-7-6-5-3-r-|
   1 & 2 & 3 & 4 & 5 & 6 &  1 & 2 & 3 & 4 & 5 & 6 &


OUT-CHORUS 3 (x4):

Gb |-------------------------|-------------------------|
Db |-------------------------|-------------------------|
Ab |-------------------------|-------------------------|
Db |-3-4-5-0---5-6-7-6-5-3-0-|-3-4-5-0---5-6-7-6-5-3-r-|
   1 & 2 & 3 & 4 & 5 & 6 &  1 & 2 & 3 & 4 & 5 & 6 &
ⓘ Bass guitar tab for 'Damn That River' by Alice In Chains, an alternative metal band formed in 1987 from Seattle, Washington, USA. Alice In Chains is known for their gritty rock/pop music.