Log in

One click and you are in

Login with Facebook Login with Google

Why sign up and log in

Guitar Tabs Explorer
Alice In Chains tabs for Dam that river

Guitar tabs

Alice In Chains
Dam That River
On the album Dirt 1992
Tabbed by: Nathan Tobola

Drop A chord diagramD MajorD tuning down =C2=BD step
Intro & chorus

|--------------------------------------------------|
|--------------------------------------------------|
|--------------------------------------------------|
|--------------------------------------------------|
|-3-4-5-0---5-6-7-6-5-3-0---3-4-5-0---5-6-7-6-5-3--|
|-3-4-5-0---5-6-7-6-5-3-0---3-4-5-0---5-6-7-6-5-3--|


Intro lead

|------------------------------------------------------|
|------------------------------------------------------|
|------------------------------------------------------|
|--------10---7~~--------------------10---7~~----------|
|-8-10-8----8-----8-10-5~~----8-10-8----8------10-8-5--|
|------------------------------------------------------|


Verse

|------------------------------------------|
|------------------------------------------|
|-5/6-5-----------------------5/6-5--------|
|-3/4-3-------3----3-5~~-3----3/4-3--------|
|---------3h5----5---------5---------5-5-3-|
|------------------------------------------|

Solo
|-----------------------------------------------------------------|
|----------5~~~~~--------------------5~~~~~-6~~~~-8~~~~-10~~~-13f~|
|----------5~~~~~5---5-7-5---5---7---7f~~~~-8f~~~-10f~~-12f~~~----|
|-5--6--7---------------------------------------------------------|
|-----------------------------------------------------------------|
|-----------------------------------------------------------------|

|-----------------------------------------------------------------|
|~~~~~~~~-13f~~~~~~~~-13f~~~----12f-|-------12f-r-------10--------|
|-------------------------------12f-|-------12f-r-------10------0-|
|-----------------------------------|---------------12----------0-|
|-----------------------------------|-----------------------------|
|-----------------------------------------------------------------|

|-----------------------------------------------------------------|
|-10f-r---------------------------|-------------------------------|
|-10f-r---------------------------|-------------------------------|
|---------12--10------------------|-------------------------------|
|-----------------11--10--8---10f-|-(10f)----------12~~~~~~~~~-10-|
|-----------------------------------------------------------------|


|----------------------------------------------------------------|
|-----------------------------------------|----------------------|
|-----------------------------------------|------------------10--|
|-----------------------------------------|-12~~~~~~~~~~-----12--|
|-10-/12-\10--8-----10--10-/12-\10--5~~~~-|----------------------|
|-----------------------------------------|--------------10------|

|------------------------------------------|
|------------------------------------------|
|-5-/-7---7---7---7---5-------9---7f--r--f-|
|------------------------------------------|
|-3-/-5---5---5---5---3-^-0---7------------|
|------------------------------------------|

|-----------------------------------------|
|-----------------------------------------|
|-(7f)----7f~~~~~~~~-7~~~~~~-5-7-5--------|
|------------------------------------6--5-|
|-----------------------------------------|

That=E2=80=99s all of it.

If you have any questions or comments, e-mail me at superjudge@msn.com
 Get more from the Web.  FREE MSN Explorer download : http://explorer.msn=
.com

Almost there ...

Sign in to get your own page with links to favourite songs and more. You are just one click away...

Login with Facebook Login with Google