Guitar Tabs Explorer
Alice In Chains tabs for Check my brain

Check My Brain tab by Alice In Chains

Alice In Chains tabs for Check my brain

Tabs with lyrics

-------------------------------------------------------------------------------
			     CHECK MY BRAIN - Alice In Chains
-------------------------------------------------------------------------------

Tabbed by: Isaias Garcia (TexasFury)
Tuning: Drop A chord diagramD MajorD


Rhythm Guitar
     Intro
     H        Q    A chord diagramE MajorE  A chord diagramE MajorE      Q    A chord diagramE MajorE    A chord diagramE MajorE    A chord diagramE MajorE    A chord diagramE MajorE    A chord diagramE MajorE    A chord diagramE MajorE       Q    A chord diagramE MajorE  A chord diagramE MajorE  A chord diagramE MajorE  A chord diagramE MajorE   A chord diagramE MajorE  A chord diagramE MajorE
A chord diagramE MajorE||-----------------------|-------------------------------------|---------------------------|
A chord diagramBB||-----------------------|-------------------------------------|---------------------------|
A chord diagramG+G||-----------------------|-------------------------------------|---------------------------|
A chord diagramD MajorD||-----------------------|-------------------------------------|---------------------------|
A chord diagramA augmentedA||-----------------------|-------------------------------------|---------------------------|
A chord diagramD MajorD||-------------------2b--|--L----2pb--2pb--2pb--2pb--2pb--2pb--|--L----2--2--2--2b--L--2b--|


  Q    A chord diagramE MajorE    A chord diagramE MajorE    A chord diagramE MajorE    A chord diagramE MajorE    A chord diagramE MajorE    A chord diagramE MajorE       Q    A chord diagramE MajorE  A chord diagramE MajorE  A chord diagramE MajorE  A chord diagramE MajorE   A chord diagramE MajorE  A chord diagramE MajorE
-------------------------------------|---------------------------|
-------------------------------------|---------------------------|
-------------------------------------|---------------------------|
-------------------------------------|---------------------------|
-------------------------------------|---------------------------|
--L----2pb--2pb--2pb--2pb--2pb--2pb--|--L----2--2--2--2b--L--2b--|


  Q    A chord diagramE MajorE    A chord diagramE MajorE    A chord diagramE MajorE    A chord diagramE MajorE    A chord diagramE MajorE    A chord diagramE MajorE       Q    A chord diagramE MajorE  A chord diagramE MajorE  A chord diagramE MajorE  A chord diagramE MajorE   A chord diagramE MajorE  A chord diagramE MajorE
-------------------------------------|---------------------------|
-------------------------------------|---------------------------|
-------------------------------------|---------------------------|
-------------------------------------|---------------------------|
-------------------------------------|---------------------------|
--L----2pb--2pb--2pb--2pb--2pb--2pb--|--L----2--2--2--2b--L--2b--|
  Q    A chord diagramE MajorE    A chord diagramE MajorE    A chord diagramE MajorE    A chord diagramE MajorE    A chord diagramE MajorE    A chord diagramE MajorE       Q    A chord diagramE MajorE  A chord diagramE MajorE  A chord diagramE MajorE  A chord diagramE MajorE   A chord diagramE MajorE  A chord diagramE MajorE
-------------------------------------|---------------------------|
-------------------------------------|---------------------------|
-------------------------------------|---------------------------|
-------------------------------------|---------------------------|
-------------------------------------|---------------------------|
--L----2pb--2pb--2pb--2pb--2pb--2pb--|--L----2--2--2--2b--L--2b--|


  Q    A chord diagramE MajorE    A chord diagramE MajorE    A chord diagramE MajorE    A chord diagramE MajorE    A chord diagramE MajorE    A chord diagramE MajorE       Q    A chord diagramE MajorE  A chord diagramE MajorE  A chord diagramE MajorE  A chord diagramE MajorE   A chord diagramE MajorE  A chord diagramE MajorE
-------------------------------------|---------------------------|
-------------------------------------|---------------------------|
-------------------------------------|---------------------------|
-------------------------------------|---------------------------|
-------------------------------------|---------------------------|
--L----2pb--2pb--2pb--2pb--2pb--2pb--|--L----2--2--2--2b--L--2b--|


  Q    A chord diagramE MajorE    A chord diagramE MajorE    A chord diagramE MajorE    A chord diagramE MajorE    A chord diagramE MajorE    A chord diagramE MajorE       Q    A chord diagramE MajorE  A chord diagramE MajorE  A chord diagramE MajorE  A chord diagramE MajorE   A chord diagramE MajorE  A chord diagramE MajorE
-------------------------------------|---------------------------|
-------------------------------------|---------------------------|
-------------------------------------|---------------------------|
-------------------------------------|---------------------------|
-------------------------------------|---------------------------|
--L----2pb--2pb--2pb--2pb--2pb--2pb--|--L----2--2--2--2b--L--2b--|


  Q    A chord diagramE MajorE    A chord diagramE MajorE    A chord diagramE MajorE    A chord diagramE MajorE    A chord diagramE MajorE    A chord diagramE MajorE       Q    A chord diagramE MajorE  A chord diagramE MajorE  A chord diagramE MajorE  A chord diagramE MajorE   A chord diagramE MajorE  A chord diagramE MajorE
-------------------------------------|---------------------------|
-------------------------------------|---------------------------|
-------------------------------------|---------------------------|
-------------------------------------|---------------------------|
-------------------------------------|---------------------------|
--L----2pb--2pb--2pb--2pb--2pb--2pb--|--L----2--2--2--2b--L--2b--|


  Q    A chord diagramE MajorE    A chord diagramE MajorE    A chord diagramE MajorE    A chord diagramE MajorE    A chord diagramE MajorE    A chord diagramE MajorE       Q    A chord diagramE MajorE  A chord diagramE MajorE  A chord diagramE MajorE  A chord diagramE MajorE   A chord diagramE MajorE  A chord diagramE MajorE
-------------------------------------|---------------------------|
-------------------------------------|---------------------------|
-------------------------------------|---------------------------|
-------------------------------------|---------------------------|
-------------------------------------|---------------------------|
--L----2pb--2pb--2pb--2pb--2pb--2pb--|--L----2--2--2--2b--L--2b--|


  Verse 1
  Q       A chord diagramE MajorE    A chord diagramE MajorE    A chord diagramE MajorE    A chord diagramE MajorE    A chord diagramE MajorE    A chord diagramE MajorE       Q    A chord diagramE MajorE  A chord diagramE MajorE  A chord diagramE MajorE  A chord diagramE MajorE   A chord diagramE MajorE  A chord diagramE MajorE
----------------------------------------|---------------------------|
----------------------------------------|---------------------------|
----------------------------------------|---------------------------|
----------------------------------------|---------------------------|
----------------------------------------|---------------------------|
--L-------2pb--2pb--2pb--2pb--2pb--2pb--|--L----2--2--2--2b--L--2b--|


  Q    A chord diagramE MajorE    A chord diagramE MajorE    A chord diagramE MajorE    A chord diagramE MajorE    A chord diagramE MajorE    A chord diagramE MajorE       Q    A chord diagramE MajorE  A chord diagramE MajorE  A chord diagramE MajorE  A chord diagramE MajorE   A chord diagramE MajorE  A chord diagramE MajorE
-------------------------------------|---------------------------|
-------------------------------------|---------------------------|
-------------------------------------|---------------------------|
-------------------------------------|---------------------------|
-------------------------------------|---------------------------|
--L----2pb--2pb--2pb--2pb--2pb--2pb--|--L----2--2--2--2b--L--2b--|


  Q    A chord diagramE MajorE    A chord diagramE MajorE    A chord diagramE MajorE    A chord diagramE MajorE    A chord diagramE MajorE    A chord diagramE MajorE       Q    A chord diagramE MajorE  A chord diagramE MajorE  A chord diagramE MajorE  A chord diagramE MajorE   A chord diagramE MajorE  A chord diagramE MajorE
-------------------------------------|---------------------------|
-------------------------------------|---------------------------|
-------------------------------------|---------------------------|
-------------------------------------|---------------------------|
-------------------------------------|---------------------------|
--L----2pb--2pb--2pb--2pb--2pb--2pb--|--L----2--2--2--2b--L--2b--|


                                                                   Chorus 1
  Q    A chord diagramE MajorE    A chord diagramE MajorE    A chord diagramE MajorE    A chord diagramE MajorE    A chord diagramE MajorE    A chord diagramE MajorE       Q    A chord diagramE MajorE  A chord diagramE MajorE  A chord diagramE MajorE  A chord diagramE MajorE   A chord diagramE MajorE  A chord diagramE MajorE     Q        Q    A chord diagramE MajorE  A chord diagramE MajorE  A chord diagramE MajorE  A chord diagramE MajorE
-------------------------------------|--------------------------|----------------------------|
-------------------------------------|--------------------------|----------------------------|
-------------------------------------|--------------------------|-------------------------8--|
-------------------------------------|-----------------------3--|--L--------3----3--3--3--8--|
-------------------------------------|-----------------------3--|--L--------3----3--3--3--6--|
--L----2pb--2pb--2pb--2pb--2pb--2pb--|--L----2--2--2--2b--L--3--|--L--------3----3--3--3-----|


  A chord diagramE MajorE  A chord diagramE MajorE  Q    A chord diagramE MajorE  A chord diagramE MajorE  A chord diagramE MajorE  A chord diagramE MajorE     A chord diagramE MajorE  A chord diagramE MajorE  Q    A chord diagramE MajorE  A chord diagramE MajorE  A chord diagramE MajorE  A chord diagramE MajorE     Q.     A chord diagramE MajorE  A chord diagramE MajorE   A chord diagramE MajorE   A chord diagramE MajorE  A chord diagramE MajorE
-------------------------|-------------------------|--------------------------|
-------------------------|-------------------------|--------------------------|
--L--8--8----8--8--8-----|-------------------------|--------------------------|
--L--8--8----8--8--8--8--|--L--8--8----8--8--8--6--|--L------8--L--10---L--3--|
--L--6--6----6--6--6--8--|--L--8--8----8--8--8--6--|--L------8--L--10---L--3--|
----------------------8--|--L--8--8----8--8--8--6--|--L------8--L--10---L--3--|


  Q    Q    A chord diagramE MajorE  A chord diagramE MajorE  A chord diagramE MajorE  A chord diagramE MajorE     A chord diagramE MajorE  A chord diagramE MajorE  Q    A chord diagramE MajorE  A chord diagramE MajorE  A chord diagramE MajorE  A chord diagramE MajorE     A chord diagramE MajorE  A chord diagramE MajorE  Q    A chord diagramE MajorE  A chord diagramE MajorE  A chord diagramE MajorE  A chord diagramE MajorE
------------------------|-------------------------|-------------------------|
------------------------|-------------------------|-------------------------|
---------------------8--|--L--8--8----8--8--8-----|-------------------------|
--L----3----3--3--3--8--|--L--8--8----8--8--8--8--|--L--8--8----8--8--8--6--|
--L----3----3--3--3--6--|--L--6--6----6--6--6--8--|--L--8--8----8--8--8--6--|
--L----3----3--3--3-----|----------------------8--|--L--8--8----8--8--8--6--|


  Q.     A chord diagramE MajorE  A chord diagramE MajorE   A chord diagramE MajorE   A chord diagramE MajorE  A chord diagramE MajorE      Q    A chord diagramE MajorE    A chord diagramE MajorE    A chord diagramE MajorE    A chord diagramE MajorE    A chord diagramE MajorE    A chord diagramE MajorE       Q    A chord diagramE MajorE  A chord diagramE MajorE  A chord diagramE MajorE  A chord diagramE MajorE   A chord diagramE MajorE  A chord diagramE MajorE
---------------------------|-------------------------------------|---------------------------|
---------------------------|-------------------------------------|---------------------------|
---------------------------|-------------------------------------|---------------------------|
--L------8--L--10---L------|-------------------------------------|---------------------------|
--L------8--L--10---L------|-------------------------------------|---------------------------|
--L------8--L--10---L--2b--|--L----2pb--2pb--2pb--2pb--2pb--2pb--|--L----2--2--2--2b--L--2b--|


  Q    A chord diagramE MajorE    A chord diagramE MajorE    A chord diagramE MajorE    A chord diagramE MajorE    A chord diagramE MajorE    A chord diagramE MajorE       Q    A chord diagramE MajorE  A chord diagramE MajorE  A chord diagramE MajorE  A chord diagramE MajorE   A chord diagramE MajorE  A chord diagramE MajorE
-------------------------------------|---------------------------|
-------------------------------------|---------------------------|
-------------------------------------|---------------------------|
-------------------------------------|---------------------------|
-------------------------------------|---------------------------|
--L----2pb--2pb--2pb--2pb--2pb--2pb--|--L----2--2--2--2b--L--2b--|


  Q    A chord diagramE MajorE    A chord diagramE MajorE    A chord diagramE MajorE    A chord diagramE MajorE    A chord diagramE MajorE    A chord diagramE MajorE       Q    A chord diagramE MajorE  A chord diagramE MajorE  A chord diagramE MajorE  A chord diagramE MajorE   A chord diagramE MajorE  A chord diagramE MajorE
-------------------------------------|---------------------------|
-------------------------------------|---------------------------|
-------------------------------------|---------------------------|
-------------------------------------|---------------------------|
-------------------------------------|---------------------------|
--L----2pb--2pb--2pb--2pb--2pb--2pb--|--L----2--2--2--2b--L--2b--|


  Q    A chord diagramE MajorE    A chord diagramE MajorE    A chord diagramE MajorE    A chord diagramE MajorE    A chord diagramE MajorE    A chord diagramE MajorE       Q    A chord diagramE MajorE  A chord diagramE MajorE  A chord diagramE MajorE  A chord diagramE MajorE   A chord diagramE MajorE  A chord diagramE MajorE
-------------------------------------|---------------------------|
-------------------------------------|---------------------------|
-------------------------------------|---------------------------|
-------------------------------------|---------------------------|
-------------------------------------|---------------------------|
--L----2pb--2pb--2pb--2pb--2pb--2pb--|--L----2--2--2--2b--L--2b--|


  Verse 2
  Q       A chord diagramE MajorE    A chord diagramE MajorE    A chord diagramE MajorE    A chord diagramE MajorE    A chord diagramE MajorE    A chord diagramE MajorE       Q    A chord diagramE MajorE  A chord diagramE MajorE  A chord diagramE MajorE  A chord diagramE MajorE   A chord diagramE MajorE  A chord diagramE MajorE
----------------------------------------|---------------------------|
----------------------------------------|---------------------------|
----------------------------------------|---------------------------|
----------------------------------------|---------------------------|
----------------------------------------|---------------------------|
--L-------2pb--2pb--2pb--2pb--2pb--2pb--|--L----2--2--2--2b--L--2b--|


  Q    A chord diagramE MajorE    A chord diagramE MajorE    A chord diagramE MajorE    A chord diagramE MajorE    A chord diagramE MajorE    A chord diagramE MajorE       Q    A chord diagramE MajorE  A chord diagramE MajorE  A chord diagramE MajorE  A chord diagramE MajorE   A chord diagramE MajorE  A chord diagramE MajorE
-------------------------------------|---------------------------|
-------------------------------------|---------------------------|
-------------------------------------|---------------------------|
-------------------------------------|---------------------------|
-------------------------------------|---------------------------|
--L----2pb--2pb--2pb--2pb--2pb--2pb--|--L----2--2--2--2b--L--2b--|


  Q    A chord diagramE MajorE    A chord diagramE MajorE    A chord diagramE MajorE    A chord diagramE MajorE    A chord diagramE MajorE    A chord diagramE MajorE       Q    A chord diagramE MajorE  A chord diagramE MajorE  A chord diagramE MajorE  A chord diagramE MajorE   A chord diagramE MajorE  A chord diagramE MajorE
-------------------------------------|---------------------------|
-------------------------------------|---------------------------|
-------------------------------------|---------------------------|
-------------------------------------|---------------------------|
-------------------------------------|---------------------------|
--L----2pb--2pb--2pb--2pb--2pb--2pb--|--L----2--2--2--2b--L--2b--|


                                                                   Chorus 2
  Q    A chord diagramE MajorE    A chord diagramE MajorE    A chord diagramE MajorE    A chord diagramE MajorE    A chord diagramE MajorE    A chord diagramE MajorE       Q    A chord diagramE MajorE  A chord diagramE MajorE  A chord diagramE MajorE  A chord diagramE MajorE   A chord diagramE MajorE  A chord diagramE MajorE     Q        Q    A chord diagramE MajorE  A chord diagramE MajorE  A chord diagramE MajorE  A chord diagramE MajorE
-------------------------------------|--------------------------|----------------------------|
-------------------------------------|--------------------------|----------------------------|
-------------------------------------|--------------------------|-------------------------8--|
-------------------------------------|-----------------------3--|--L--------3----3--3--3--8--|
-------------------------------------|-----------------------3--|--L--------3----3--3--3--6--|
--L----2pb--2pb--2pb--2pb--2pb--2pb--|--L----2--2--2--2b--L--3--|--L--------3----3--3--3-----|


  A chord diagramE MajorE  A chord diagramE MajorE  Q    A chord diagramE MajorE  A chord diagramE MajorE  A chord diagramE MajorE  A chord diagramE MajorE     A chord diagramE MajorE  A chord diagramE MajorE  Q    A chord diagramE MajorE  A chord diagramE MajorE  A chord diagramE MajorE  A chord diagramE MajorE     Q.     A chord diagramE MajorE  A chord diagramE MajorE   A chord diagramE MajorE   A chord diagramE MajorE  A chord diagramE MajorE
-------------------------|-------------------------|--------------------------|
-------------------------|-------------------------|--------------------------|
--L--8--8----8--8--8-----|-------------------------|--------------------------|
--L--8--8----8--8--8--8--|--L--8--8----8--8--8--6--|--L------8--L--10---L--3--|
--L--6--6----6--6--6--8--|--L--8--8----8--8--8--6--|--L------8--L--10---L--3--|
----------------------8--|--L--8--8----8--8--8--6--|--L------8--L--10---L--3--|


  Q    Q    A chord diagramE MajorE  A chord diagramE MajorE  A chord diagramE MajorE  A chord diagramE MajorE     A chord diagramE MajorE  A chord diagramE MajorE  Q    A chord diagramE MajorE  A chord diagramE MajorE  A chord diagramE MajorE  A chord diagramE MajorE     A chord diagramE MajorE  A chord diagramE MajorE  Q    A chord diagramE MajorE  A chord diagramE MajorE  A chord diagramE MajorE  A chord diagramE MajorE
------------------------|-------------------------|-------------------------|
------------------------|-------------------------|-------------------------|
---------------------8--|--L--8--8----8--8--8-----|-------------------------|
--L----3----3--3--3--8--|--L--8--8----8--8--8--8--|--L--8--8----8--8--8--6--|
--L----3----3--3--3--6--|--L--6--6----6--6--6--8--|--L--8--8----8--8--8--6--|
--L----3----3--3--3-----|----------------------8--|--L--8--8----8--8--8--6--|


  A chord diagramE MajorE  A chord diagramE MajorE  A chord diagramE MajorE  A chord diagramE MajorE  A chord diagramE MajorE   A chord diagramE MajorE   A chord diagramE MajorE   A chord diagramE MajorE     Q    Q    A chord diagramE MajorE  A chord diagramE MajorE  A chord diagramE MajorE  A chord diagramE MajorE     Q    Q    A chord diagramE MajorE  A chord diagramE MajorE  A chord diagramE MajorE  A chord diagramE MajorE
-----------------------------|------------------------|------------------------|
-----------------------------|------------------------|------------------------|
-----------------------------|---------------------6--|--L----6----6--6--6-----|
--L--6--6--8--L--10---L\--3--|--L----3----3--3--3--6--|--L----6----6--6--6--5--|
--L--6--6--8--L--10---L\--3--|--L----3----3--3--3--4--|--L----4----4--4--4--5--|
--L--6--6--8--L--10---L\--3--|--L----3----3--3--3-----|---------------------5--|


  A chord diagramE MajorE  A chord diagramE MajorE  A chord diagramE MajorE  A chord diagramE MajorE  A chord diagramE MajorE  A chord diagramE MajorE  A chord diagramE MajorE  A chord diagramE MajorE     A chord diagramE MajorE  A chord diagramE MajorE  Q    A chord diagramE MajorE  A chord diagramE MajorE  A chord diagramE MajorE  A chord diagramE MajorE     Q    Q    A chord diagramE MajorE  A chord diagramE MajorE  A chord diagramE MajorE  A chord diagramE MajorE
--------------------------|-------------------------|------------------------|
--------------------------|-------------------------|------------------------|
--------------------------|-------------------------|---------------------6--|
--L--5--5--5--5--5--5--4--|--L--4--4----4--4--4--3--|--L----3----3--3--3--6--|
--L--5--5--5--5--5--5--4--|--L--4--4----4--4--4--3--|--L----3----3--3--3--4--|
--L--5--5--5--5--5--5--4--|--L--4--4----4--4--4--3--|--L----3----3--3--3-----|


  Q    Q    A chord diagramE MajorE  A chord diagramE MajorE  A chord diagramE MajorE  A chord diagramE MajorE     A chord diagramE MajorE  A chord diagramE MajorE  Q    A chord diagramE MajorE  A chord diagramE MajorE  A chord diagramE MajorE  A chord diagramE MajorE     A chord diagramE MajorE  A chord diagramE MajorE  Q    A chord diagramE MajorE  A chord diagramE MajorE  A chord diagramE MajorE  A chord diagramE MajorE
------------------------|-------------------------|--------------------------|
------------------------|-------------------------|--------------------------|
--L----6----6--6--6-----|-------------------------|--------------------------|
--L----6----6--6--6--5--|--L--5--5----5--5--5--4--|--L--4--4----4--4--4------|
--L----4----4--4--4--5--|--L--5--5----5--5--5--4--|--L--4--4----4--4--4------|
---------------------5--|--L--5--5----5--5--5--4--|--L--4--4----4--4--4--2b--|


  Guitar Solo
  Q           A chord diagramE MajorE    A chord diagramE MajorE    A chord diagramE MajorE    A chord diagramE MajorE    A chord diagramE MajorE    A chord diagramE MajorE       Q    A chord diagramE MajorE  A chord diagramE MajorE  A chord diagramE MajorE  A chord diagramE MajorE   A chord diagramE MajorE  A chord diagramE MajorE
--------------------------------------------|---------------------------|
--------------------------------------------|---------------------------|
--------------------------------------------|---------------------------|
--------------------------------------------|---------------------------|
--------------------------------------------|---------------------------|
--L-----------2pb--2pb--2pb--2pb--2pb--2pb--|--L----2--2--2--2b--L--2b--|


  Q    A chord diagramE MajorE    A chord diagramE MajorE    A chord diagramE MajorE    A chord diagramE MajorE    A chord diagramE MajorE    A chord diagramE MajorE       Q    A chord diagramE MajorE  A chord diagramE MajorE  A chord diagramE MajorE  A chord diagramE MajorE   A chord diagramE MajorE  A chord diagramE MajorE
-------------------------------------|---------------------------|
-------------------------------------|---------------------------|
-------------------------------------|---------------------------|
-------------------------------------|---------------------------|
-------------------------------------|---------------------------|
--L----2pb--2pb--2pb--2pb--2pb--2pb--|--L----2--2--2--2b--L--2b--|


  Q    A chord diagramE MajorE    A chord diagramE MajorE    A chord diagramE MajorE    A chord diagramE MajorE    A chord diagramE MajorE    A chord diagramE MajorE       Q    A chord diagramE MajorE  A chord diagramE MajorE  A chord diagramE MajorE  A chord diagramE MajorE   A chord diagramE MajorE  A chord diagramE MajorE
-------------------------------------|---------------------------|
-------------------------------------|---------------------------|
-------------------------------------|---------------------------|
-------------------------------------|---------------------------|
-------------------------------------|---------------------------|
--L----2pb--2pb--2pb--2pb--2pb--2pb--|--L----2--2--2--2b--L--2b--|


  Q    A chord diagramE MajorE    A chord diagramE MajorE    A chord diagramE MajorE    A chord diagramE MajorE    A chord diagramE MajorE    A chord diagramE MajorE       Q    A chord diagramE MajorE  A chord diagramE MajorE  A chord diagramE MajorE  A chord diagramE MajorE   A chord diagramE MajorE  A chord diagramE MajorE
-------------------------------------|---------------------------|
-------------------------------------|---------------------------|
-------------------------------------|---------------------------|
-------------------------------------|---------------------------|
-------------------------------------|---------------------------|
--L----2pb--2pb--2pb--2pb--2pb--2pb--|--L----2--2--2--2b--L--2b--|


  Verse 3
  Q       A chord diagramE MajorE    A chord diagramE MajorE    A chord diagramE MajorE    A chord diagramE MajorE    A chord diagramE MajorE    A chord diagramE MajorE       Q    A chord diagramE MajorE  A chord diagramE MajorE  A chord diagramE MajorE  A chord diagramE MajorE   A chord diagramE MajorE  A chord diagramE MajorE
----------------------------------------|---------------------------|
----------------------------------------|---------------------------|
----------------------------------------|---------------------------|
----------------------------------------|---------------------------|
----------------------------------------|---------------------------|
--L-------2pb--2pb--2pb--2pb--2pb--2pb--|--L----2--2--2--2b--L--2b--|


  Q    A chord diagramE MajorE    A chord diagramE MajorE    A chord diagramE MajorE    A chord diagramE MajorE    A chord diagramE MajorE    A chord diagramE MajorE       Q    A chord diagramE MajorE  A chord diagramE MajorE  A chord diagramE MajorE  A chord diagramE MajorE   A chord diagramE MajorE  A chord diagramE MajorE
-------------------------------------|---------------------------|
-------------------------------------|---------------------------|
-------------------------------------|---------------------------|
-------------------------------------|---------------------------|
-------------------------------------|---------------------------|
--L----2pb--2pb--2pb--2pb--2pb--2pb--|--L----2--2--2--2b--L--2b--|


  Q    A chord diagramE MajorE    A chord diagramE MajorE    A chord diagramE MajorE    A chord diagramE MajorE    A chord diagramE MajorE    A chord diagramE MajorE       Q    A chord diagramE MajorE  A chord diagramE MajorE  A chord diagramE MajorE  A chord diagramE MajorE   A chord diagramE MajorE  A chord diagramE MajorE
-------------------------------------|---------------------------|
-------------------------------------|---------------------------|
-------------------------------------|---------------------------|
-------------------------------------|---------------------------|
-------------------------------------|---------------------------|
--L----2pb--2pb--2pb--2pb--2pb--2pb--|--L----2--2--2--2b--L--2b--|


                                                                   Chorus 3
  Q    A chord diagramE MajorE    A chord diagramE MajorE    A chord diagramE MajorE    A chord diagramE MajorE    A chord diagramE MajorE    A chord diagramE MajorE       Q    A chord diagramE MajorE  A chord diagramE MajorE  A chord diagramE MajorE  A chord diagramE MajorE   A chord diagramE MajorE  A chord diagramE MajorE     Q        Q    A chord diagramE MajorE  A chord diagramE MajorE  A chord diagramE MajorE  A chord diagramE MajorE
-------------------------------------|--------------------------|----------------------------|
-------------------------------------|--------------------------|----------------------------|
-------------------------------------|--------------------------|-------------------------8--|
-------------------------------------|-----------------------3--|--L--------3----3--3--3--8--|
-------------------------------------|-----------------------3--|--L--------3----3--3--3--6--|
--L----2pb--2pb--2pb--2pb--2pb--2pb--|--L----2--2--2--2b--L--3--|--L--------3----3--3--3-----|


  A chord diagramE MajorE  A chord diagramE MajorE  Q    A chord diagramE MajorE  A chord diagramE MajorE  A chord diagramE MajorE  A chord diagramE MajorE     A chord diagramE MajorE  A chord diagramE MajorE  Q    A chord diagramE MajorE  A chord diagramE MajorE  A chord diagramE MajorE  A chord diagramE MajorE     Q.     A chord diagramE MajorE  A chord diagramE MajorE   A chord diagramE MajorE   A chord diagramE MajorE  A chord diagramE MajorE
-------------------------|-------------------------|--------------------------|
-------------------------|-------------------------|--------------------------|
--L--8--8----8--8--8-----|-------------------------|--------------------------|
--L--8--8----8--8--8--8--|--L--8--8----8--8--8--6--|--L------8--L--10---L--3--|
--L--6--6----6--6--6--8--|--L--8--8----8--8--8--6--|--L------8--L--10---L--3--|
----------------------8--|--L--8--8----8--8--8--6--|--L------8--L--10---L--3--|


  Q    Q    A chord diagramE MajorE  A chord diagramE MajorE  A chord diagramE MajorE  A chord diagramE MajorE     A chord diagramE MajorE  A chord diagramE MajorE  Q    A chord diagramE MajorE  A chord diagramE MajorE  A chord diagramE MajorE  A chord diagramE MajorE     A chord diagramE MajorE  A chord diagramE MajorE  Q    A chord diagramE MajorE  A chord diagramE MajorE  A chord diagramE MajorE  A chord diagramE MajorE
------------------------|-------------------------|-------------------------|
------------------------|-------------------------|-------------------------|
---------------------8--|--L--8--8----8--8--8-----|-------------------------|
--L----3----3--3--3--8--|--L--8--8----8--8--8--8--|--L--8--8----8--8--8--6--|
--L----3----3--3--3--6--|--L--6--6----6--6--6--8--|--L--8--8----8--8--8--6--|
--L----3----3--3--3-----|----------------------8--|--L--8--8----8--8--8--6--|


  A chord diagramE MajorE  A chord diagramE MajorE  A chord diagramE MajorE  A chord diagramE MajorE  A chord diagramE MajorE   A chord diagramE MajorE   A chord diagramE MajorE   A chord diagramE MajorE     Q    Q    A chord diagramE MajorE  A chord diagramE MajorE  A chord diagramE MajorE  A chord diagramE MajorE     Q    Q    A chord diagramE MajorE  A chord diagramE MajorE  A chord diagramE MajorE  A chord diagramE MajorE
-----------------------------|------------------------|------------------------|
-----------------------------|------------------------|------------------------|
-----------------------------|---------------------6--|--L----6----6--6--6-----|
--L--6--6--8--L--10--10---3--|--L----3----3--3--3--6--|--L----6----6--6--6--5--|
--L--6--6--8--L--10---L\--3--|--L----3----3--3--3--4--|--L----4----4--4--4--5--|
--L--6--6--8--L--10---L\--3--|--L----3----3--3--3-----|---------------------5--|


  A chord diagramE MajorE  A chord diagramE MajorE  A chord diagramE MajorE  A chord diagramE MajorE  A chord diagramE MajorE  A chord diagramE MajorE  A chord diagramE MajorE  A chord diagramE MajorE     A chord diagramE MajorE  A chord diagramE MajorE  Q    A chord diagramE MajorE  A chord diagramE MajorE  A chord diagramE MajorE  A chord diagramE MajorE     Q    Q    A chord diagramE MajorE  A chord diagramE MajorE  A chord diagramE MajorE  A chord diagramE MajorE
--------------------------|-------------------------|------------------------|
--------------------------|-------------------------|------------------------|
--------------------------|-------------------------|---------------------6--|
--L--5--5--5--5--5--5--4--|--L--4--4----4--4--4--3--|--L----3----3--3--3--6--|
--L--5--5--5--5--5--5--4--|--L--4--4----4--4--4--3--|--L----3----3--3--3--4--|
--L--5--5--5--5--5--5--4--|--L--4--4----4--4--4--3--|--L----3----3--3--3-----|


  Q    Q    A chord diagramE MajorE  A chord diagramE MajorE  A chord diagramE MajorE  A chord diagramE MajorE     A chord diagramE MajorE  A chord diagramE MajorE  Q    A chord diagramE MajorE  A chord diagramE MajorE  A chord diagramE MajorE  A chord diagramE MajorE     A chord diagramE MajorE  A chord diagramE MajorE  Q    A chord diagramE MajorE  A chord diagramE MajorE  A chord diagramE MajorE  A chord diagramE MajorE
------------------------|-------------------------|-------------------------|
------------------------|-------------------------|-------------------------|
--L----6----6--6--6-----|-------------------------|-------------------------|
--L----6----6--6--6--5--|--L--5--5----5--5--5--4--|--L--4--4----4--4--4--3--|
--L----4----4--4--4--5--|--L--5--5----5--5--5--4--|--L--4--4----4--4--4--3--|
---------------------5--|--L--5--5----5--5--5--4--|--L--4--4----4--4--4--3--|


  Q    Q    A chord diagramE MajorE  A chord diagramE MajorE  A chord diagramE MajorE  A chord diagramE MajorE     Q    Q    A chord diagramE MajorE  A chord diagramE MajorE  A chord diagramE MajorE  A chord diagramE MajorE     A chord diagramE MajorE  A chord diagramE MajorE  A chord diagramE MajorE  A chord diagramE MajorE  A chord diagramE MajorE  A chord diagramE MajorE  A chord diagramE MajorE  A chord diagramE MajorE
------------------------|------------------------|--------------------------|
------------------------|------------------------|--------------------------|
---------------------6--|--L----6----6--6--6-----|--------------------------|
--L----3----3--3--3--6--|--L----6----6--6--6--5--|--L--5--5--5--5--5--5--4--|
--L----3----3--3--3--4--|--L----4----4--4--4--5--|--L--5--5--5--5--5--5--4--|
--L----3----3--3--3-----|---------------------5--|--L--5--5--5--5--5--5--4--|


  A chord diagramE MajorE  A chord diagramE MajorE  Q    A chord diagramE MajorE  A chord diagramE MajorE  A chord diagramE MajorE  A chord diagramE MajorE     Q    Q    A chord diagramE MajorE  A chord diagramE MajorE  A chord diagramE MajorE  A chord diagramE MajorE     Q    Q    A chord diagramE MajorE  A chord diagramE MajorE  A chord diagramE MajorE  A chord diagramE MajorE
-------------------------|------------------------|------------------------|
-------------------------|------------------------|------------------------|
-------------------------|---------------------6--|--L----6----6--6--6-----|
--L--4--4----4--4--4--3--|--L----3----3--3--3--6--|--L----6----6--6--6--5--|
--L--4--4----4--4--4--3--|--L----3----3--3--3--4--|--L----4----4--4--4--5--|
--L--4--4----4--4--4--3--|--L----3----3--3--3-----|---------------------5--|


                                                       Outro
  A chord diagramE MajorE  A chord diagramE MajorE  Q    A chord diagramE MajorE  A chord diagramE MajorE  A chord diagramE MajorE  A chord diagramE MajorE     A chord diagramE MajorE  A chord diagramE MajorE  Q    A chord diagramE MajorE  A chord diagramE MajorE  A chord diagramE MajorE  A chord diagramE MajorE      Q     A chord diagramE MajorE    A chord diagramE MajorE    A chord diagramE MajorE    A chord diagramE MajorE    A chord diagramE MajorE    A chord diagramE MajorE
-------------------------|--------------------------|--------------------------------------|
-------------------------|--------------------------|--------------------------------------|
-------------------------|--------------------------|--------------------------------------|
--L--5--5----5--5--5--4--|--L--4--4----4--4--4------|--------------------------------------|
--L--5--5----5--5--5--4--|--L--4--4----4--4--4------|--------------------------------------|
--L--5--5----5--5--5--4--|--L--4--4----4--4--4--2b--|--L-----2pb--2pb--2pb--2pb--2pb--2pb--|


  Q    A chord diagramE MajorE  A chord diagramE MajorE  A chord diagramE MajorE  A chord diagramE MajorE   A chord diagramE MajorE  A chord diagramE MajorE      Q    A chord diagramE MajorE    A chord diagramE MajorE    A chord diagramE MajorE    A chord diagramE MajorE    A chord diagramE MajorE    A chord diagramE MajorE       Q    A chord diagramE MajorE  A chord diagramE MajorE  A chord diagramE MajorE  A chord diagramE MajorE   A chord diagramE MajorE  A chord diagramE MajorE
---------------------------|-------------------------------------|---------------------------|
---------------------------|-------------------------------------|---------------------------|
---------------------------|-------------------------------------|---------------------------|
---------------------------|-------------------------------------|---------------------------|
---------------------------|-------------------------------------|---------------------------|
--L----2--2--2--2b--L--2b--|--L----2pb--2pb--2pb--2pb--2pb--2pb--|--L----2--2--2--2b--L--2b--|


  Q    A chord diagramE MajorE    A chord diagramE MajorE    A chord diagramE MajorE    A chord diagramE MajorE    A chord diagramE MajorE    A chord diagramE MajorE       Q    A chord diagramE MajorE  A chord diagramE MajorE  A chord diagramE MajorE  A chord diagramE MajorE   A chord diagramE MajorE  A chord diagramE MajorE
-------------------------------------|---------------------------|
-------------------------------------|---------------------------|
-------------------------------------|---------------------------|
-------------------------------------|---------------------------|
-------------------------------------|---------------------------|
--L----2pb--2pb--2pb--2pb--2pb--2pb--|--L----2--2--2--2b--L--2b--|


  Q    A chord diagramE MajorE    A chord diagramE MajorE    A chord diagramE MajorE    A chord diagramE MajorE    A chord diagramE MajorE    A chord diagramE MajorE       Q    A chord diagramE MajorE  A chord diagramE MajorE  A chord diagramE MajorE  A chord diagramE MajorE   Q
-------------------------------------|-------------------------||
-------------------------------------|-------------------------||
-------------------------------------|-------------------------||
-------------------------------------|-------------------------||
-------------------------------------|-------------------------||
--L----2pb--2pb--2pb--2pb--2pb--2pb--|--L----2--2--2--2b-------||




Lead Guitar
  m.30
  W                   W                   W                   H        Q    A chord diagramE MajorE  A chord diagramE MajorE
-------------------|-------------------|-------------------|-----------------------|
-------------------|-------------------|-------------------|-----------------------|
-------------------|-------------------|-------------------|-----------------------|
-------------------|-------------------|-------------------|-------------------9b--|
-------------------|-------------------|-------------------|-----------------------|
-------------------|-------------------|-------------------|-----------------------|


  Q    A chord diagramE MajorE    A chord diagramE MajorE    A chord diagramE MajorE    A chord diagramE MajorE    A chord diagramE MajorE    A chord diagramE MajorE       Q    Q     A chord diagramE MajorE   A chord diagramE MajorE   A chord diagramE MajorE   A chord diagramE MajorE
-------------------------------------|-----------------------------|
-------------------------------------|-----------------------------|
-------------------------------------|-----------------------------|
--L----9pb--9pb--9pb--9pb--9pb--9pb--|--L----9~----9~--9~--9~--9b--|
-------------------------------------|-----------------------------|
-------------------------------------|-----------------------------|


  Q    A chord diagramE MajorE    A chord diagramE MajorE    A chord diagramE MajorE    A chord diagramE MajorE    A chord diagramE MajorE    A chord diagramE MajorE       Q    Q     A chord diagramE MajorE   A chord diagramE MajorE  A chord diagramE MajorE    A chord diagramE MajorE       A chord diagramE MajorE   S  S  H.
-------------------------------------|-----------------------------|--------------------------|
-------------------------------------|-----------------------------|--------------------------|
-------------------------------------|------------------------10b--|---L---Lp-8---------------|
--L----9pb--9pb--9pb--9pb--9pb--9pb--|--L----9~----9~--9--9~-------|--------------------------|
-------------------------------------|-----------------------------|------------11------------|
-------------------------------------|-----------------------------|--------------------------|


   W                    W                    H         A chord diagramE MajorE   A chord diagramE MajorE   A chord diagramE MajorE   A chord diagramE MajorE       W
--------------------|--------------------|-----------------------------|--------------------|
--------------------|--------------------|-----------------------------|--------------------|
--------------------|--------------------|--------------------13--13b--|---L----------------|
--------------------|--------------------|-----------------------------|--------------------|
---L----------------|---L----------------|---L---------L--11-----------|--------------------|
--------------------|--------------------|-----------------------------|--------------------|


   W                   W                   W                   W
--------------------|-------------------|-------------------|-------------------|
--------------------|-------------------|-------------------|-------------------|
---L----------------|-------------------|-------------------|-------------------|
--------------------|-------------------|-------------------|-------------------|
--------------------|-------------------|-------------------|-------------------|
--------------------|-------------------|-------------------|-------------------|


  m.62
  W                   W                   W                   H        Q    A chord diagramE MajorE  A chord diagramE MajorE
-------------------|-------------------|-------------------|----------------------|
-------------------|-------------------|-------------------|----------------------|
-------------------|-------------------|-------------------|----------------------|
-------------------|-------------------|-------------------|----------------------|
-------------------|-------------------|-------------------|-------------------8--|
-------------------|-------------------|-------------------|----------------------|


  Guitar Solo
  A chord diagramE MajorE           A chord diagramE MajorE  A chord diagramE MajorE  A chord diagramE MajorE  A chord diagramE MajorE  A chord diagramE MajorE  A chord diagramE MajorE   A chord diagramE MajorE      A chord diagramE MajorE   A chord diagramE MajorE   A chord diagramE MajorE  A chord diagramE MajorE  Q.      A chord diagramE MajorE
------------------------------------|----------------------------|
------------------------------------|----------------------------|
------------------------------------|------------------------11--|
--------------9--9--------------10--|---L--10--10--9--L----------|
--L-----------------8--8--8--8------|-------------------------9--|
--------------------------------10--|---L--10--10--9--L----------|


   A chord diagramE MajorE   A chord diagramE MajorE   A chord diagramE MajorE   A chord diagramE MajorE   A chord diagramE MajorE   A chord diagramE MajorE   A chord diagramE MajorE   A chord diagramE MajorE      A chord diagramE MajorE   A chord diagramE MajorE   A chord diagramE MajorE  A chord diagramE MajorE  A chord diagramE MajorE  A chord diagramE MajorE  A chord diagramE MajorE   A chord diagramE MajorE       A chord diagramE MajorE   A chord diagramE MajorE  A chord diagramE MajorE   A chord diagramE MajorE   Q.      A chord diagramE MajorE
----------------------------------|-------------------------------|------------------------------|
----------------------------------|-------------------------------|------------------------------|
---L--11--11--10---L--10--10------|--------------------------10b--|---L--10--8-------------------|
------------------------------10--|---L--10--10--9--L--9--9-------|-------------10--10~------9b--|
---L---9---9---8---L---8---8------|-------------------------------|------------------------------|
------------------------------10--|---L--10--10--9--L--9--9-------|------------------------------|


                                            tap at 20th fret
                                            T                T    T    T
  A chord diagramE MajorE  A chord diagramE MajorE  A chord diagramE MajorE  A chord diagramE MajorE  S  S  S  S A chord diagramE MajorE  A chord diagramE MajorE      H        A chord diagramE MajorE                A chord diagramE MajorE    A chord diagramE MajorE    A chord diagramE MajorE
--------------------------------|-------------------------------------------|
--------------------------------|-------------------------------------------|
--------------------------------|-------------------------------------------|
--L--9--8--6--8h-9p-8p-6-8--8b--|--L--------8pb--------------8pb--8pb--8pb--|
--------------------------------|-------------------------------------------|
--------------------------------|-------------------------------------------|


  H.           S  S  A chord diagramE MajorE     W                   W                   W
------------------------|-------------------|-------------------|-------------------|
------------------------|-------------------|-------------------|-------------------|
------------------------|-------------------|-------------------|-------------------|
--L------------6h-8p-6--|--L----------------|--L----------------|-------------------|
------------------------|-------------------|-------------------|-------------------|
------------------------|-------------------|-------------------|-------------------|


  Outro - m.106
  A chord diagramE MajorE             A chord diagramE MajorE  A chord diagramE MajorE  A chord diagramE MajorE  A chord diagramE MajorE  A chord diagramE MajorE  A chord diagramE MajorE   A chord diagramE MajorE      Q.     A chord diagramE MajorE  Q.     A chord diagramE MajorE     A chord diagramE MajorE  A chord diagramE MajorE  A chord diagramE MajorE  A chord diagramE MajorE   A chord diagramE MajorE   A chord diagramE MajorE  A chord diagramE MajorE   A chord diagramE MajorE
--------------------------------------|-----------------------|-----------------------------|
--------------------------------------|-----------------------|-----------------------------|
--------------------------------------|-----------------------|-----------------------------|
----------------------------------10--|---L------9--L------9--|--L--9--9----------------10--|
----------------8--8--8--8--8--8------|-----------------------|-----------8~--L~--8--8------|
----------------------------------10--|---L------9--L------9--|--L--9--9----------------10--|


   A chord diagramE MajorE   A chord diagramE MajorE   A chord diagramE MajorE  A chord diagramE MajorE  Q.      A chord diagramE MajorE      A chord diagramE MajorE   A chord diagramE MajorE   A chord diagramE MajorE   A chord diagramE MajorE   H            A chord diagramE MajorE   A chord diagramE MajorE   A chord diagramE MajorE  A chord diagramE MajorE  Q.      A chord diagramE MajorE
----------------------------|----------------------------|----------------------------|
----------------------------|----------------------------|----------------------------|
------------------------11--|---L--11--11--10---L--------|------------------------11--|
--10--10--10--9--L----------|----------------------------|--10--10--10--9--L----------|
-------------------------9--|---L---9---9---8---L--------|-------------------------9--|
--10--10--10--9--L----------|----------------------------|--10--10--10--9--L----------|


   A chord diagramE MajorE   A chord diagramE MajorE   A chord diagramE MajorE   A chord diagramE MajorE   Q.      A chord diagramE MajorE      A chord diagramE MajorE   A chord diagramE MajorE   A chord diagramE MajorE  A chord diagramE MajorE  H
------------------------------|--------------------------||
------------------------------|--------------------------||
---L--11--11--10---L----------|--------------------------||
--------------------------10--|--10--10--10--9-----------||
---L---9---9---8---L----------|--------------------------||
--------------------------10--|--10--10--10--9-----------||


Duration 🏷Legend
---------------
W - whole
H - half
Q - quarter
A chord diagramE MajorE - 8th
S - 16th
T - 32nd
X - 64th
. - note dotted
|-n-|  - n-tuplets


Tablature 🏷Legend
----------------
L - tied note
x - dead note
g - grace note
(n) - ghost note
> - accentuded note
NH - natural harmonic
AH - artificial harmonic
TH - tapped harmonic
SH - semi harmonic
PH - pitch harmonic
h - hammer on
p - pull off
b - bend
br - bendRelease
pb - preBend
pbr - preBendRelease
brb - bendReleaseBend
\n/ - tremolo bar dip
\n - tremolo bar dive
-/n - tremolo bar Release up
/n\ - tremolo bar inverted dip
/n - tremolo bar return
-\n - tremolo bar Release down
S - shift slide
s - legato slide
/ -  slide into from below or out of upwards
\ -  slide into from above or out of downwards
~ - vibrato
W - wide vibrato
tr - trill
TP - tremolo picking
T - tapping
S - slap
P - pop
< - fade in
^ - brush up
v - brush down
ⓘ Guitar tab for 'Check My Brain' by Alice In Chains, an alternative metal band formed in 1987 from Seattle, Washington, USA. Alice In Chains is known for their gritty rock/pop music.

Other versions of Check My Brain

Other alternative guitar chords and tabs for the song Check my brain (Ver. 2) by Alice In Chains
Check my brain (Ver. 2)Tabs