Log in

One click and you are in

Login with Facebook Login with Google

Why sign up and log in

Guitar Tabs Explorer
Alice In Chains bass tabs for Angry chair

Bass tabs with lyrics

Angry Chair
                by Alice in Chains
             transcribed by Travis HIggins

Tuned down to Eb, Ab, Db, Gb (as practically is all Alice in Chains)
Main riff play during versus also
||----------------|
||----------------|
||-----2-----3---|
||--0-----0------|


This is the riff that goes with the "heeeyyyy" part...listen to the song you can't miss it
----------------------------------|
----------------------------------|
----------------------------------|
--1--1--1--1--0--0--5~~~--|


This riff is for the "I don't mind at all" part
-----------------------------------------------------||
-----------------------------------------------------||
0--0--2--2--2---------------0--0--2--2--2-----||
------------------2--2--3--3-------------------0--||

And thats it...just those three parts played over and over.
Listen to the song to get the count on how many times to play each part.


==      Created with a shareware version of the BUCKET 'O TAB      ==
==              For more information:              ==
==             email: gse@ocsystems.com             ==
==   US Mail: The Bucket, 3176-B5 Summit Square Dr., Oakton, VA 22124   ==

Almost there ...

Sign in to get your own page with links to favourite songs and more. You are just one click away...

Login with Facebook Login with Google