Log in

One click and you are in

Login with Facebook Login with Google

Why sign up and log in

Guitar Tabs Explorer
Alice In Chains tabs for Alice in chains album

Guitar tabs with lyrics

Album- Alice In Chains

1.GRIND


verse riff/intro     fill 1          fill 2
   A chord diagramE5E5  F#5/G  A chord diagramCadd9Cadd9
e|------------3--|-----------------|-----------------|
A chord diagramBB|------------3--|--15p12----------|--15p12----------|
A chord diagramG+G|------------5--|-------14--------|-------12--------|
A chord diagramD MajorD|--2-2--4/5-----|---------12~~~~--|---------11~~~~--|
A chord diagramA augmentedA|--2-2--4/x-----|-----------------|-----------------|
A chord diagramE MajorE|--0-0--2/3-----|-----------------|-----------------|

   1st variation   2nd variation
    A chord diagramE5E5   F#5/G      A chord diagramE5E5 F#5/G  A chord diagramD MajorD
e|---------------|---------------|
A chord diagramBB|------------0--|------------7--|
A chord diagramG+G|------------0--|------------7--|
A chord diagramD MajorD|--2-2--4/5--0--|--2-2--4/5--7--|
A chord diagramA augmentedA|--2-2--4/x-----|--2-2--4/5--5--|
A chord diagramE MajorE|--0-0--2/3-----|--0-0--2/3-----|

[ every once in a while, change the verse riff with one of the       ]
[ variations. a second (lead) guitar plays the fills over the riffs. ]

*chorus "let the sun..."

 -rhythm guitar -lead guitar
e|-------------|-------------|
A chord diagramBB|-------------|--4b-2-------|
A chord diagramG+G|--8--6--4-3--|--------4-3--|
A chord diagramD MajorD|--8--6--4-3--|-------------|
A chord diagramA augmentedA|--6--4--2-1--|-------------|
A chord diagramE MajorE|-------------|-------------|

2.BRUSH AWAY

Intro - and verse riff
|---------------------|
|---------------------|
|----------------6----|     <== guitar 1
|---6---5_6_5-6-------|
|-4---4--------4------|
|---------------------|
(lead w/ vocals)
|-----3^4^3-4------------------| <===guitar 2
|------------------------------|
|------------------------------|
|-----5^6^5-6------------------| <== guitar 3
|------------------------------|
|------------------------------|


Chorus - (as *close* as i can get it)
Heavy palm mutes....
|------------------------------------|------------------------------------|
|------------------------------------|------------------------------------|
|------------------------------------|------------------------------------|
|------------------------------------|---------------2-2-4-4-4-4-4-4-4-4--|
|-2-4-4-5-5-2-2-0-0-4-4-4-4-4-4-4-4--|-2-4-4-5-5-2-2-0-0-2-2-2-2-2-2-2-2--|
|-2-4-4-5-5-2-2-0-0-4-4-4-4-4-4-4-4--|-2-4-4-5-5-2-2----------------------|

3.SLUDGE FACTORY


INTRO - play throughout the song

	  A chord diagramF5F5 A chord diagramDsus2Dsus2		   A chord diagramD5D5    A chord diagramD5D5
e    --------0---0--0--0--0--0--0--0--0--0--0--0--0-|
A chord diagramBB    --------3---3--3--3--3--3--3--3--3--3--3--3--3-|
A chord diagramG+G    --------2---2--2--2--2--2--2--2--2--2--2--2--2-|
A chord diagramD MajorD    --1--3--0---0--0--0--0--0--0--0--0--0--0--0--0-|
A chord diagramA augmentedA    --1--3--0---0--0--0--0--0--0--0--0--0--0--0--0-|
A chord diagramE MajorE    --1--1------------------------0-----0----------|


CHORUS
This is the bit Jerry plays

e    ------------------------------------|----------------------------------|
A chord diagramBB    --2h3-s5-s10-8----------------------|--2h3-s5--------------------------|
A chord diagramG+G    ---------------7-6-5v---------------|---------5-4-2-4-4b--4-2----------|
A chord diagramD MajorD    ----------------------5-4-3v--------|-------------------------3--------|
A chord diagramA augmentedA    -----------------------------3-4s5--|---------------------------3-4s5--|
A chord diagramE MajorE    ------------------------------------|----------------------------------|
       			Once again you see an in...

e    ------------------------------------|------------------------------|
A chord diagramBB    --2h3-s5-s10-8----------------------|--2h3-s5-s10-8----------------|
A chord diagramG+G    ---------------7-6-5v---------------|---------------7-6-5v---------|
A chord diagramD MajorD    ----------------------5-4-3v--------|----------------------5-4-3v--|
A chord diagramA augmentedA    -----------------------------3-4s5--|------------------------------|
A chord diagramE MajorE    ------------------------------------|------------------------------|
     			So afraid you kindly gurgle out...

Here's the chords which Scott plays in time with Jerry.

          A chord diagramF5F5 A chord diagramCadd9Cadd9		     A chord diagramF5F5
e    --------0--0--0--0--0--0--0--0-----------------------|
A chord diagramBB    --------3--3--3--3--3--3--3--3-----------------------|
A chord diagramG+G    --------0--0--0--0--0--0--0--0-----------------------|
A chord diagramD MajorD    --1--3--2--2--2--2--2--2--2--2--3--3--3--3--3--3--3--|
A chord diagramA augmentedA    --1--3--3--3--3--3--3--3--3--2--3--3--3--3--3--3--3--|
A chord diagramE MajorE    --1--1--------------------------1--1--1--1--1--1--1--|
				    Once again you see an in...


SOLO

A chord diagramE MajorE    -------------------------|--------------------------|
A chord diagramBB    --------6-----6--8-7-6v--|------6---6v------6---6v--|
A chord diagramG+G    --5--7-----7-------------|--7-7---7-----7-7---7-----|
A chord diagramD MajorD    -------------------------|--------------------------|
A chord diagramA augmentedA    -------------------------|--------------------------|
A chord diagramE MajorE    -------------------------|--------------------------|

A chord diagramE MajorE    -------------------------------|--------------------------------|
A chord diagramBB    ------8-7-6--------------------|--------------------------------|
A chord diagramG+G    --7-7-------7--5h7-5h7-5h7-7v--|--5h7p5-------------------------|
A chord diagramD MajorD    -------------------------------|--------7-5-7-5-3--5-3-5p3------|
A chord diagramA augmentedA    -------------------------------|----------------------------5v--|
A chord diagramE MajorE    -------------------------------|--------------------------------|

A chord diagramE MajorE    --------------------------------------|-------------------|
A chord diagramBB    --------------------------------------|-------------------|
A chord diagramG+G    --------------------------------------|-------------------|
A chord diagramD MajorD    --------------------------------------|------3-3s5--7--5--|
A chord diagramA augmentedA    --5p3-----------3--5--5---3---3h5-5v--|--3h5--------------|
A chord diagramE MajorE    -------3v----5--------------5---------|-------------------|

A chord diagramE MajorE    --------------------|-------------8--------------|
A chord diagramBB    --------------------|--6---6--9b-----9r--6-8-----|
A chord diagramG+G    --------5--7-7-7-7--|----7-----|-------------7v--|
A chord diagramD MajorD    --5--7--------------|---------hold---------------|
A chord diagramA augmentedA    --------------------|---------bend---------------|
A chord diagramE MajorE    --------------------|----------------------------|

4.HEAVEN BESIDE YOU


INTRO - Gtr 1, play this 10 times

e    -------------------------------------|
A chord diagramBB    -------------------------------------|
A chord diagramG+G    -------------------------------------|
A chord diagramD MajorD    -----5br-----------0--------------0--|
A chord diagramA augmentedA    ----------7-----7-----7--------5-----|
A chord diagramE MajorE    --0----------5-----------5--3--------|


CHORUS

       A chord diagramAadd9Aadd9	      A chord diagramG6G6	     Badd11	    Badd4	   A chord diagramAadd9Aadd9
e    --0--0--0--0--0--0--0--0--0--0--0--0--0--0--0--0--0--0--0--0--0--0--0--|
A chord diagramBB    --0--0--0--0--0--0--0--0--0--0--0--0--0--0--0--0--0--0--0--0--0--0--0--|
A chord diagramG+G    --6--6--6--6--6--4--4--4--4--4--9--9--9--9--9--8--8--8--8--8--6--6--6--|
A chord diagramD MajorD    --7--7--7--7--7--5--5--5--5--5-10-10-10-10-10--9--9--9--9--9--7--7--7--|
A chord diagramA augmentedA    --7--7--7--7--7--5--5--5--5--5-10-10-10-10-10--9--9--9--9--9--7--7--7--|
A chord diagramE MajorE    --5--5--5--5--5--3--3--3--3--3--8--8--8--8--8--7--7--7--7--7--5--5--5--|
       Like the coldest winter chill, heaven beside you, hell within...


BRIDGE - play this 2 times

e    -------------------------------------------------------------------|
A chord diagramBB    -------------------------------------------------------------------|
A chord diagramG+G    ------0-------0-------0-------0-------0-------0-------0-------0----|
A chord diagramD MajorD    -------------------------------------------------------------------|
A chord diagramA augmentedA    --3-3---3-3-3---3-4-4---4-4-4---4-5-5---5-5-5---5-6-6---6-6-6---6--|
A chord diagramE MajorE    --4-4---4-4-4---4-5-5---5-5-5---5-6-6---6-6-6---6-7-7---7-7-7---7--|
       So there's problems in your life, that's ***ed up, and I'm not blind...

Play this several times where needed

       A chord diagramE minorEm
e    --0-0-0-------------------------|
A chord diagramBB    --0-0-0-------------------------|
A chord diagramG+G    --0-0-0-------------------------|
A chord diagramD MajorD    --2-2-2---2v-----------0-----0--|
A chord diagramA augmentedA    --2-2-2--------1b----2-----1----|
A chord diagramE MajorE    --0-0-0-0----0-----3-----2------|


SOLO

e    ------------------|-----------------------------------------|
A chord diagramBB    ------------------|-----------------------------------------|
A chord diagramG+G    --14v--12-14-12v--|-----12----------12-14-14b--14-14-14-12--|
A chord diagramD MajorD    ------------------|--14----14-12h14-------------------------|
A chord diagramA augmentedA    ------------------|-----------------------------------------|
A chord diagramE MajorE    ------------------|-----------------------------------------|

e    --------------------------------------|---------------------------|
A chord diagramBB    --15-15-15s17s15--12-15-12----12------|---------------------------|
A chord diagramG+G    ---------------------------14----14v--|--12-----------------------|
A chord diagramD MajorD    --------------------------------------|-----14v--12-14------------|
A chord diagramA augmentedA    --------------------------------------|----------------13s12-10v--|
A chord diagramE MajorE    --------------------------------------|---------------------------|

Here's the next bit Jerry plays in the solo, and he plays
this again at the end of the song - play several times

     let ring throughout
e    --0----------------------|--0----------------------|
A chord diagramBB    -----12------------------|-----12------------------|
A chord diagramG+G    ---------15--15------15--|--------15--15------12v--|
A chord diagramD MajorD    -----------------14------|----------------14-------|
A chord diagramA augmentedA    -------------------------|-------------------------|
A chord diagramE MajorE    -------------------------|-------------------------|

5.HEAD CREEPS

very beginning    |lead intro  | rhythm intro riff                |
                    |            | verse riff           x3          |
e:-----------------||-----------||---------------------------|--------|
B:-----------------||-----------||*-------------------------*|--------|
G:-----------------||-----------||---------------------------|--------|
D:2--------2-------||-----------||*2------------------------*|2---3---|
A:2--------2-------||10--9--/14||-2-------------------------|2---3----|
E:0--------0-------||-----------||-0---5b(6)b(5)b(6)b(5)b(6)-|0---1---|
                                   P.M. during intro only .....
=0D

   prechorus riff                                      | prechorus-chorus=

                                                       | transition
e:---------------------------------|------------------||--------------------|
B:*--------------------------------|-----------------*||--------------------|
G:---------------------------------|------------------||-----------------4~-|
D:*2---------7b(8)7b(8)7b(8)-b(8)7-|2----------------*||-10--9--5--4--2--2--|
A:-2---5-7-5----------------------6|2---5-7-5---------||-10--9--5--4--2-----|
E:-0-------------------------------|0---------6-6-6/7-||-8---7--3--2--0-----|
=0D


  |    chorus riff                                | that squeaky outro pa=
rt |
  |                                    x a bunch  |                      =
   |
e:|------------------|---------------------------||-10----10----11----12----|
B:|*-----------------|--------------------------*||*---11----11----11----11*|
G:|---------------4~-|------------------------4~-||-------------------------|
D:|*2--8--8/9--2--2--|-2------5-----4---3--2--2-*||*-----------------------*|
A:|-2--8--8/9--2-----|-2----5-----4--------2-----||-------------------------|
E:|-0--6--6/7--0-----|-0--3-----2-----1----0-----||-------------------------|

6.AGAIN


Intro
  Q=122
 4/4
  Gtr I
          PM----------|     PM------------------|
|-----||------------------|---------------------|
|-----||o-----------------|---------------------|
|-----||----6-----------7-|---------------------|
|-----||----6-----------7-|-5-5-5-5-5-5-5-------|
|-6-6-||o-6---6-6-6-6-6---|-5-5-5-5-5-5-5-5-5---|
|-4-4-||--4---4-4-4-4-4---|-3-3-3-3-3-3-3-3-3---|


 -|     PM------|       PM---------------------|
|---------------------|------------------------|
|---------------------|--------------------o---|
|----6-------------7--|------------------------|
|----6-------------7--|-5-5-5-5-5-5-5----------|
|-6-(4)-6-6-6-6-6-(5)-|-5-5-5-5-5-5-5-x-x--o---|
|-4-----4-4-4-4-4-----|-3-3-3-3-3-3-3-x-x------|


   Verses
    $
    PM  PM------|     PM------------------|   PM------|     PM------------------|
||------------------|-------------------|-----------------|---------------------|
||o-----------------|-------------------|-----------------|---------------------|
||----6-----------7-|-------------------|---6-----------7-|---------------------|
||----6-----------7-|-5-5-5-5-5-5-5-----|---6-----------7-|-5-5-5-5-5-5-5-------|
||o-6---6-6-6-6-6-5-|-5-5-5-5-5-5-5-5-5-|-6-4-6-6-6-6-6-5-|-5-5-5-5-5-5-5-5-5---|
||--4---4-4-4-4-4---|-3-3-3-3-3-3-3-3-3-|-4---4-4-4-4-4---|-3-3-3-3-3-3-3-3-3---|


  PM  PM------|     PM------------------|   PM------|     PM---------------------|
|-----------------|-------------------|-----------------|------------------------|
|-----------------|-------------------|-----------------|--------------------o---|
|---6-----------7-|-------------------|---6-----------7-|------------------------|
|---6-----------7-|-5-5-5-5-5-5-5-----|---6-----------7-|-5-5-5-5-5-5-5----------|
|-6---6-6-6-6-6-5-|-5-5-5-5-5-5-5-5-5-|-6-4-6-6-6-6-6-5-|-5-5-5-5-5-5-5-5-5--o---|
|-4---4-4-4-4-4---|-3-3-3-3-3-3-3-3-3-|-4---4-4-4-4-4---|-3-3-3-3-3-3-3-3-3------|


  PM  PM------|     PM------------------|   PM------|     PM--------------------|
|-----------------|-------------------|-----------------|-----------------------|
|-----------------|-------------------|-----------------|-----------------------|
|---6-----------7-|-------------------|---6-----------7-|-----------------------|
|---6-----------7-|-5-5-5-5-5-5-5-----|---6-----------7-|-5-5-5-5-5-5-5---------|
|-6---6-6-6-6-6-5-|-5-5-5-5-5-5-5-5-5-|-6-4-6-6-6-6-6-5-|-5-5-5-5-5-5-5-5-5-----|
|-4---4-4-4-4-4---|-3-3-3-3-3-3-3-3-3-|-4---4-4-4-4-4---|-3-3-3-3-3-3-3-3-3-----|


 Chorus
  $$
  AbDbAbAb      A chord diagramG+G       A chord diagramA augmentedA
  Gtrs I, II
  | | |   |     |    |   |   |     |
  / / /   /     /    /   /   /     /

  Gtr III
                ~~~~~~~~
|-----------------|-----(0)-----0-(0)--0--|
|-----------------|------2------2-(2)--2--|
|-----------------|------0------0-(0)--0--|
|-----------------|-----------------------|
|-----4---5p4-----|-----------------------|
|-4-4-4-4-----4-3-|-(3)-----(3)-----------|


  AbDbAbAb         A chord diagramG+G       A chord diagramA augmentedA
  | |  |     |     |    |  | |    |
  / /  /     /     /    /  / /    /

                   ~~~~~~~~
|--------------------|----------------0---|
|--------------------|-----2---2-(2)--2---|
|--------------------|-----0---0-(0)--0---|
|-----(4)---(4)------|--------------------|
|------4-----5p4-----|--------------------|
|-4-4--4--4------4-3-|-(3)---3------------|


  AbDbAbAb         A chord diagramG+G       A chord diagramA augmentedA
  | |  |     |     |    |   |   |     |
  / /  /     /     /    /   /   /     /

                   ~~~~~~~~
|--------------------|-----(0)-----0-(0)---0--|
|--------------------|------2------2-(2)-2-2--|
|--------------------|------0------0-(0)-0-0--|
|-----(4)---(4)------|------------------------|
|------4-----5p4-x---|------------------------|
|-4-4--4--4--------3-|-(3)-----(3)------------|


                                 To Coda
                                 To Coda
  AbDbAbAb        A chord diagramG+G       A chord diagramA augmentedA
  | |  |    |     |    |  | |    |
  / /  /    /     /    /  / /    /

                  ~~~~~~~~
|-------------------|----------------0---|
|-------------------|-----2---2-(2)--2---|
|-------------------|-----0---0-(0)--0---|
|-----(4)---4-------|--------------------|
|------4----5p4-----|--------------------|
|-4-4--4--4-----4-3-|-(3)---3------------|


                                                                D.S. al Coda
  Gtrs I, II
  PM  PM------|     PM------------------|   PM------|     PM--------------------|
|-----------------|-------------------|-----------------|-----------------------|
|-----------------|-------------------|-----------------|-----------------------|
|---6-----------7-|-------------------|---6-----------7-|-----------------------|
|---6-----------7-|-5-5-5-5-5-5-5-----|---6-----------7-|-5-5-5-5-5-5-5---------|
|-6---6-6-6-6-6-5-|-5-5-5-5-5-5-5-5-5-|-6-4-6-6-6-6-6-5-|-5-5-5-5-5-5-5-5-5-----|
|-4---4-4-4-4-4---|-3-3-3-3-3-3-3-3-3-|-4---4-4-4-4-4---|-3-3-3-3-3-3-3-3-3-----|


  &
  Gtr I
|-------------------|-------------------|---------------------|
|-------------------|-------------------|---------------------|
|---6-----------7-7-|---6-----------7-7-|---6-------------7-7-|
|---6-6-----0-5-7-7-|---6-6-----0-5-7-7-|---6-6-----<5>-5-7-7-|
|-6-4-6-------5-5-5-|-6-4-6-------5-5-5-|-6-4-6---------5-5-5-|
|-4-4-4-<4>---3-----|-4-4-4-<4>---3-----|-4-4-4-<4>-----3-----|


  Gtr III
  <
  ~~~~~
|-------------------------|
|-------------------------|
|-6pb7====================|
|-------------------------|
|-------------------------|
|-------------------------|
|
| Gtr II                  A chord diagramG+G
|-------------------------|
|-------------------------|
|---------5-----------7-7-|
|-6-----6-6---------5-7-7-|
|-6-----4-6---------5-5-5-|
|-4-----4-4-<4>-<3>-3-----|


                                 ~
|--------------------------|--------------------------|
|---7b9==(7)--7---7--7-7-7r|=(7)-7-------(7)----------|
|--------------------------|-----------------6b7======|
|--------------------------|--------------------------|
|--------------------------|--------------------------|
|--------------------------|--------------------------|
|
|trs I, II
|--------------------------|--------------------------|
|--------------------------|--------------------------|
|---6------------------7-7-|-----6----------------7-7-|
|---6-----6----------5-7-7-|--6--6-6---------5----7-7-|
|-6-4-----6----------5-5-5-|--6--4-6---------5----5-5-|
|-4-4-----4--<4>-<3>-3-----|--4----4-<4>-<3>-3--------|


         ~~~~~~~~~~~~~~~~~~~~~~~~~~~~~~~~~~~~~~~~~~~~
|---------------------------|-----------------------|
|---------------------------|-----------------------|
|-(6)---(6)-----------(6)r==|=(6)-------------------|
|---------------------------|-----------------------|
|---------------------------|-----------------------|
|---------------------------|-----------------------|
|
|---------------------------|-----------------------|
|---------------------------|-----------------------|
|-----6----------------7--7-|-----6-------------7-7-|
|--6--6--6----------5--7--7-|--6--6-6---------5-7-7-|
|--6--4--6----------5--5--5-|--6--4-6---------5-5-5-|
|--4-----4--<4>-<3>-3-------|--4----4-<4>-<3>-3-----|


 ~~~~~
|-------------------------------|
|-----7b9==(7)--7---7--7-[7]-7r=|
|-(6)---------------------------|
|-------------------------------|
|-------------------------------|
|-------------------------------|
|
|-------------------------------|
|-------------------------------|
|-----6-------------------7--7--|
|--6--6-----6----------5--7--7--|
|--6--4-----6----------5--5--5--|
|--4--------4--<4>-<3>-3--------|


      ~
|----------------------------|---------------------------|
|-(7)-7-------(7)------------|---------------------------|
|-----------------6b7====(6)-|-(6)---------------(6)r(6)-|
|----------------------------|---------------------------|
|----------------------------|---------------------------|
|----------------------------|---------------------------|
|
|----------------------------|---------------------------|
|----------------------------|---------------------------|
|-----6----------------7--7--|-----6--------------7---7--|
|--6--6-6---------5----7--7--|--6--6-6---------5--7---7--|
|--6--4-6---------5----5--5--|--6--4-6---------5--5---5--|
|--4----4-<4>-<3>-3----------|--4----4-<4>-<3>-3---------|


   ~~~~~~~~~~~~~~~  T
|--------------------------------|----------------------|
|--------------------------------|----------------------|
|-(6)---------(6)-4-4(16)b6==(4)-|-(4)r==========(4)----|
|--------------------------------|----------------------|
|--------------------------------|----------------------|
|--------------------------------|----------------------|
|
|                                      PM-----------------|
|--------------------------------|------------------------|
|--------------------------------|------------------------|
|-----6-------------7---------7--|-----6-------------7----|
|--6--6-6---------5-7---------7--|--6--6-6-6-6-6--6--7----|
|--6--4-6---------5-5---------5--|--6--4-6-6-6-6--6--5----|
|--4----4-<4>-<3>-3--------------|--4----4-4-4-4--4-------|


  Gtrs I, II
   PM-------------------|     PM--------------|
|---------------------|-----------------------|
|---------------------|-----------------------|
|-(4)-----------------|----6-------------7----|
|--5--5-5-5-5-5-5-----|----6-------------7----|
|--5--5-5-5-5-5-5-5-5-|-6-(4)-6-6-6-6-6-(5)---|
|--3--3-3-3-3-3-3-3-3-|-4-----4-4-4-4-4-------|


                       Verse 3
  PM--------------------|   PM-------------|
|-------------------||---------------------|
|-------------------||o--------------------|
|-------------------||----6-----------7----|
|-5-5-5-5-5-5-5-----||----6-----------7----|
|-5-5-5-5-5-5-5-x-x-||o-6---6-6-6-6-6------|
|-3-3-3-3-3-3-3-x-x-||--4---4-4-4-4-4------|


  PM------------------|   PM------------|
|-------------------|-------------------|
|-------------------|-------------------|
|-------------------|---6-----------7---|
|-5-5-5-5-5-5-5-----|---6-----------7---|
|-5-5-5-5-5-5-5-5-5-|-6-4-6-6-6-6-6-5---|
|-3-3-3-3-3-3-3-3-3-|-4---4-4-4-4-4-----|


 1.,2.                  3.
                     D.S.S. al Dbl. Coda
  PM----------------------------------------|
|--------------------||---------------------|
|-------------------o||---------------------|
|--------------------||---------------------|
|-5-5-5-5-5-5-5------||-5-5-5-5-5-5-5-5-----|
|-5-5-5-5-5-5-5-5-5-o||-5-5-5-5-5-5-5-5-----|
|-3-3-3-3-3-3-3-3-3--||-3-3-3-3-3-3-3-3-----|


  &&
  Gtrs I, II
|-------------------|-------------------|---------------------|
|-------------------|-------------------|---------------------|
|---6-----------7-7-|---6-----------7-7-|-----------------7-7-|
|-6-6-6-------5-7-7-|-6-6-6---x-0-5-7-7-|-6-6-6-----x-0-5-7-7-|
|-6-4-6-----5-5-5-5-|-6-4-6-------5-5-5-|-6-4-6---------5-5-5-|
|-4-4-4-<4>-3-3-----|-4---4-4-----3-----|-4-4-4-<4>-----3-----|


                      Outro
  Gtr III
|-------------------||----------------------------------------|
|-------------------||---7b9==(7)-7--7--[7]-[7]-[7]-[7]r([7])-|
|-------------------||----------------------------------------|
|-------------------||----------------------------------------|
|-------------------||----------------------------------------|
|-------------------||----------------------------------------|
|
| Gtrs I, II
|-------------------||----------------------------------------|
|-------------------||----------------------------------------|
|---6-----------7-7-||---6-----------------------7---7--------|
|-6-6-6-------5-7-7-||-6-6--------6----------5---7---7--------|
|-6-4-6-----5-5-5-5-||-6-4--------6------5---5---5---5--------|
|-4-4-4-<4>-3-3-----||-4-4--------4-<4>--3---3----------------|


      ~~~~~~~~~~~~
|----------------------------|
|-(7)-7-------(7)------------|
|-----------------6---(6)b7==|
|----------------------------|
|----------------------------|
|----------------------------|
|
|----------------------------|
|----------------------------|
|-----6-------------7--7-----|
|--6--6-6---------5-7--7-----|
|--6--4-6------5--5-5--5-----|
|--4--4-4-<4>--3--3----------|


                           ~~~
|-----------------------|---------------------|
|-----------------------|---------------------|
|-(6)-------------(6)r==|=(6)-----------------|
|-----------------------|---------------------|
|-----------------------|---------------------|
|-----------------------|---------------------|
|
|-----------------------|---------------------|
|-----------------------|---------------------|
|-----6------------7--7-|-----6-----------7-7-|
|--6--6-6-------5--7--7-|--6--6-6-------5-7-7-|
|--6--4-6-----5-5--5--5-|--6--4-6-----5-5-5-5-|
|--4--4-4-<4>-3-3-------|--4--4-4-<4>-3-3-----|


||------------------------------------|
||o-----7b9==(7)--7--[7]-[7]-[7]-[7]r=|
||--(6)-------------------------------|
||------------------------------------|
||o-----------------------------------|
||------------------------------------|
|
||------------------------------------|
||o-----------------------------------|
||------6---------------------7---7---|
||---6--6-----6-----------5---7---7---|
||o--6--4-----6-------5---5---5---5---|
||---4--4-----4--<4>--3---3-----------|


      ~~~~~~~~~~~~
|----------------------------|-----------------------|
|-(7)-7-------(7)------------|-----------------------|
|-----------------6---(6)b7==|=(6)-------------(6)r==|
|----------------------------|-----------------------|
|----------------------------|-----------------------|
|----------------------------|-----------------------|
|
|----------------------------|-----------------------|
|----------------------------|-----------------------|
|-----6-------------7--7-----|-----6------------7--7-|
|--6--6-6---------5-7--7-----|--6--6-6-------5--7--7-|
|--6--4-6------5--5-5--5-----|--6--4-6-----5-5--5--5-|
|--4--4-4-<4>--3--3----------|--4--4-4-<4>-3-3-------|


  ~
|--------------------||----------------------------|
|-------------------o||-----7b9==(7)--7--7-7-7-7r==|
|-6------------------||-(6)------------------------|
|--------------------||----------------------------|
|-------------------o||----------------------------|
|--------------------||----------------------------|
|
|--------------------||----------------------------|
|-------------------o||----------------------------|
|---6-----------7-7--||-----6----------------7-7---|
|-6-6-6-------5-7-7--||--6--6-----6--------5-7-7---|
|-6-4-6-----5-5-5-5-o||--6--4-----6------5-5-5-5---|
|-4-4-4-<4>-3-3------||--4--4-----4--<4>-3-3-------|


      ~~~~~~~~~~~~
|----------------------------|
|-(7)-7-------(7)------------|
|-----------------6---(6)b7==|
|----------------------------|
|----------------------------|
|----------------------------|
|
|----------------------------|
|----------------------------|
|-----6-------------7--7-----|
|--6--6-6---------5-7--7-----|
|--6--4-6------5--5-5--5-----|
|--4--4-4-<4>--3--3----------|


                   T        T          ~~
|------------------------------------|---------------------*|
|------------------------------------|---------------------*|
|-(6)---------(6)-18p6-(6)-(6(18))---|-6r=============(6)--*|
|------------------------------------|---------------------*|
|------------------------------------|---------------------*|
|------------------------------------|---------------------*|
|
|------------------------------------|---------------------*|
|------------------------------------|---------------------*|
|-----6-----------------7----------7-|---6-----------------*|
|--6--6-6------------5--7----------7-|-6-6-6---------------*|
|--6--4-6------5-----5--5----------5-|-6-4-6-----<5>-------*|
|--4--4-4-<4>--3-----3---------------|-4-4-4-<4>-<3>-------*|

7.SHAME IN YOU


Intro: A chord diagramD MajorD   A chord diagramC#C#  A chord diagramC majorC    A chord diagramA augmentedA

Lead Riff:  A chord diagramBb majorBb|-----12b-(14)-12-----


Verse 1:

           A chord diagramD MajorD                       A chord diagramC#C#                   A chord diagramC majorC                  A chord diagramA augmentedA
When I waken,   And I'm achin', Time for sleepin', yeah

               A chord diagramD MajorD                    A chord diagramC#C#                      A chord diagramC majorC
                 A chord diagramA augmentedA                                     When I'm sayin',  Time
to go and,  I've been hurtin', yeah

               A chord diagramD MajorD                  A chord diagramF#F#                  A chord diagramC majorC              A chord diagramA augmentedA
When I'm layin',  I'm still trying,  Concentrating on dyin', yeah


Chorus:

A chord diagramD MajorD  A chord diagramF#F#  A chord diagramFF   A chord diagramA augmentedA   (pick out, don't strum)

          A chord diagramD MajorD
You're right as rain

               A chord diagramF#F#
But you're wrong to blame

                 A chord diagramFF               A chord diagramA augmentedA
Agreed my crime's the same

      A chord diagramD MajorD
My sin's I'll claim

             A chord diagramF#F#
Give you back shed pain

     A chord diagramFF                            A chord diagramA augmentedA
Go find a place for own shame, yeah

     A chord diagramD MajorD
So you can deal

              A chord diagramF#F#
With this thing unreal

           A chord diagramFF                          A chord diagramA augmentedA
No one made you feel any hurt, yeah


Verse 2:

Body's movin',  Only Provin',
No one heeds to move

Still believin',  Yet mistaken,
All God's children, yeah

And I must say, I was stupid
Selfishly she consumed, yeah


Chorus:

And you must change, patterns all we trained
or n'er regain peace you seek
Now you hear me, for the things I see
Yeah, I believe in inner peace, yeah


Bridge:

A chord diagramD MajorD              A chord diagramC majorC             A chord diagramG+G             A chord diagramD MajorD
Throw out,  Blow up,  Hold in

A chord diagramD MajorD              A chord diagramC majorC            A chord diagramG+G                 A chord diagramD MajorD     A chord diagramA augmentedA
Show fine, No signs, Grow Blind

8.GOD AM

Tune down half-step to A chord diagramEb MajorEb and Drop A chord diagramD MajorD


Intro and Verse.  Play Loosely.

Eb----------------------0--------------------------------0-------------------|
Bb----------------------0----------------0--------------0--------------------|
Gb---------------------------------------3-----------------------------------|
Db--8--6-6-6--8--2---X--------2-2-2--X--------2-2-2---X----------------------|
Ab--8--6-6-6--8--2---X--------2-2-2--X--------2-2-2---X----------------------|
Db--8--6-6-6--8--2---X--------2-2-2--X--------2-2-2---X----------------------|

Chorus
Eb------------------------------------------------------------------------------------|
Bb------------------------------------------------------------------------------------|
Gb------------------------------------------------------------------------------------|
Db--2--2--2-/-6-6-6--4--4--4-----------2--2--2-/-6--6--6---4-4---2--------------------|
Ab--2--2--2-/-6-6-6--4--4--4-----------2--2--2-/-6--6--6---4-4---2--------------------|
Db--2--2--2-/-6-6-6--4--4--4-----------2--2--2-/-6--6--6---4-4---2--------------------|
       Can I be as my God Am?            God   of   all   my   God  Am.


Solo and Chorus Fill
Eb----------------------------------------------------------------------------------|
Bb----------------------------------------------------------------------------------|
Gb----------------------------------------------------------------------------------|
Db----------------------------------------------------------------------------------|
Ab---2--2/-6/-4-4/--2-2-2---1-2-1---------------------------------------------------|
Db------------------------------------------6---------------------------------------|

9.SO CLOSE

E-------------------------------------------------------------------------------|
B-------------------------------------------------------------------------------|
G-------------------------3--------3--------2-----------------------3--------3--|
D--------3--------2----------3--------------3--------3--------2-----3--3--3--3--|
A--------------------1----------1--------3-----------------------1-----1--1--1--|
E--0--3-----0--2----------------------1--------0--3-----0--2--------------------|

-------------||
-------------||
------2------||
------3------||
---3---------||
1------------||


                                                  4x
E-------------------------------------------------||
B-------------------------------------------------||
G------------------------3--------3--------2------||
D--------3--------2---------3--------------3------||
A--------------------1---------1--------3---------||
E--0--3-----0--2---------------------1------------||


    ~~~~~~~~~~~                            2x
E----------------0-------------------------||
B-------------------6----------------------||
G--(0)-----------------7-----7--0--0-------||
D-------------------------8----------------||
A------------------------------------------||
E------------------------------------------||


CHORUS


E--------------------0-----------------------------0-----------------------------|
B--------------------0-----------------------------0-----------------------------|
G-------------3------3----------------------3------3------------------------2--1-|
D--2--3--4----4------4------------2--3--4---4------4--------4--3--2----2----2--2-|
A--2--3--4----4---4--4------------2--3--4---4---4--4--------4--3--2----2----2--2-|
E--0--1--2----2---2--2------------0--1--2---2---2--2--------2--1--0----0----0--0-|

------------------------0---||
------------------------0---||
-----1--2--2--2--2--1---1---||
-----2--2--2--2--2--2---2---||
-----2--2--2--2--2--2---2---||
-----0--0--0--0--0--0---0---||

10.NOTHIN'

gtr. 1:  A chord diagramD7b5D7b5        A chord diagramD MajorD

gtr. 2:
-------------------------------|
----------15---------12--------|
----------14---------12--------|
-----------0---------12--------|
-------------------------------|
-------------------------------|

repeat that a bunch, then riff A:
    hold bend
-------------------------------0------------|
-2b--2-2-2-2--r2--3-2br(2)--------0---------|
---------------------------2b---------0-----|
--------------------------------------0-----|
--------------------------------------0-----|
--------------------------------------0-----|

repeat that in the verses, then:

"workin   so   late "
----------------------0------0------0------0------------------------------|
-----3-2br(2)---2b------0------0------0------0----------------------------|
--------------------------b2-----b2-----b2-----b2r(2)---------------0-----|
-------------------------------------------------------2-2-2-2-2-2--0-----|
-------------------------------------------------------2-2-2-2-2-2--0-----|
-------------------------------------------------------2-2-2-2-2-2--0-----|

the part during the chorus is:

gtrs 1 + 2:
------------------------------------------------|
-----------15b~~~~~~~~--------------------------|
-0---------14b~~~~~~~~--------------------------|
-0----------0-----------------------------------|
-0----------0-----------------------------------|
-0----------------------------------------------|

gtr. 3:       hold bend
-------------------------------------------------|
-------------------------------------------------|
-8--8--8--8--8b--8--8--8r(8)---------------------|
-------------------------------------------------|
-------------------------------------------------|
-------------------------------------------------|
(gtr 3 w/ flange)


11.FROGS


INTRO - play several times

e    --------------------------------------------------|
A chord diagramBB    --------------------------------------------------|
A chord diagramG+G    --------------------------------------------------|
A chord diagramD MajorD    --------5--------5--------5--------5-----5-----5--|
A chord diagramA augmentedA    -----4--------4--------4--------4-----------------|
A chord diagramE MajorE    --0--------0--------0--------0--------4-----3-----|


PRE CHORUS - play 3 times

       A chord diagramG5G5		 A chord diagramG5G5
e    --------------------------------------|
A chord diagramBB    --------------------------------------|
A chord diagramG+G    --------------------------------------|
A chord diagramD MajorD    --------5--------5--------5--------5--|
A chord diagramA augmentedA    -----5--------4--------5--------4-----|
A chord diagramE MajorE    --3--------3--------3--------3--------|


CHORUS - play 4 times
		  	  A chord diagramCadd9Cadd9
e    ---------------------0--0--0--0--0--0--0--|
A chord diagramBB    ---------------------3--3--3--3--3--3--3--|
A chord diagramG+G    --3--3--3--3--5--3---0--0--0--0--0--0--0--|
A chord diagramD MajorD    --3--3--3--3--3--3---2--2--2--2--2--2--2--|
A chord diagramA augmentedA    --3--3--3--3--3--3---3--3--3--3--3--3--3--|
A chord diagramE MajorE    --4--4--4--4--4--4------------------------|
       Why's it have to be this way?

SOLOS
Jerry plays this at 2:31 and again at 4:10

e    ------------8-10-10b-10-8-------10----|------------8-10-10b--10-8-10b--|
A chord diagramBB    ----------8---------------8v--8----8--|----------8---------------------|
A chord diagramG+G    ------8-7-----------------------------|------8-7-----------------------|
A chord diagramD MajorD    --5-6---------------------------------|--5-6---------------------------|
A chord diagramA augmentedA    --------------------------------------|--------------------------------|
A chord diagramE MajorE    --------------------------------------|--------------------------------|
       Be this way...			      Be this way..

							      A chord diagramG6G6
e    ------------8-10-10b-10-8-------10----|------------8-10--0--(0)--|
A chord diagramBB    ----------8---------------8v--8----8--|----------8-------0--(0)--|
A chord diagramG+G    ------8-7-----------------------------|------8-7---------4--(4)--|
A chord diagramD MajorD    --5-6---------------------------------|--5-6-------------5--(5)--|
A chord diagramA augmentedA    --------------------------------------|------------------5--(5)--|
A chord diagramE MajorE    --------------------------------------|------------------3--(3)--|
       Be this way...			      Be this way.


At 5:53 Jerry plays this riff 8 times

e    --------------------------------------|
A chord diagramBB    --------------------------------------|
A chord diagramG+G    --3b--------3-------------------------|
A chord diagramD MajorD    ------4--5-----------4----------------|
A chord diagramA augmentedA    ---------------4--5-----------4br-----|
A chord diagramE MajorE    ------------------------3--5-------0--|

Jerry then continues with harmonics as below

          Harm...		  	   Harm
e					   5
A chord diagramBB    --7--7--7--7--7--7---7--7-- etc, then
A chord diagramG+G       \
A chord diagramD MajorD       you get the higher pitched sound on the
A chord diagramA augmentedA       first note by pressing the string down
A chord diagramE MajorE       and slightly to the right of the 7th fret.

12.OVER NOW

guitar 4, electric w/distortion tone control set to 0. (standard half step
down tuning)

1st solo:
                                                        yeah we pay our debt sometime
         We pay our debt sometime                 (hold bend)
-------------------------------------------------------------------------12------------|
----------------------------------9-10-9~~~~~9-10-12-12b~~~~~~~--------------b12r(12)--|
-7b--7b7b----------------------11------------------------------------------------------|
---------------------------------------------------------------------------------------|
---------------------------------------------------------------------------------------|
---------------------------------------------------------------------------------------|

----------------------------------------------------------------|
-10~~~~9h10p9-----11br(11)--------------------------------------|
--------------9~~----------9~~-9br(9)p7~~~~-6--7p6---9br(9)-----|
----------------------------------------------------------------|
----------------------------------------------------------------|
----------------------------------------------------------------|

This is where it gets tricky because an octaver is used, which doubles
everything one octave below.

---------------------------------------------------------------------------------------|
---------------------------------------------------------------------------------------|
-----------------11br(11)--9-----------------------------------------------------------|
--9/11-11~~-9-11-------------12p11h12p11p9----9------------------------------9h11--9~~-|
-------------------------------------------12---12p11--12p11-9~~-11-12p11-12-----------|
---------------------------------------------------------------------------------------|

                        octaver off:
-------------------------------------------------------------------------|
-------------------------------------------------------------------------|
------------------------------------------------11br(11)--9h11-----------|
------------9br(9)---------------------11br(11)-----------------11br(11)-|
-9--9--9--7--------7~~~~~------------------------------------------------|
-------------------------------------------------------------------------|

that does it for the first solo, here's the second one, same guitar:

                             we pay our debt sometime
--------------------------------------------------------------|
--------------------------------------------------------------|
--------------------------------------------------------------| repeat once, only slide
-------------9~~-----------9~~------6br(6)-----6--7-----------| to to 9 second time.
-4br(4)-4/7------4b(4)-4/7-----------------9-------------9~~~-|
--------------------------------------------------------------|


------------------------------------------------------------------------------|
------------------------------------------------------------------------------|
-------------------------9--------9b-b9r(9)-7-6br(6)-------------6/7--9-9~~---|
------------11-11b-11-/9---7-------------------------7-------7-7--------------|
-9-11br(11)--------------------------------------------9--9-------------------|
------------------------------------------------------------------------------|

--------------------10~~-9-10-12b-12~~-10-9-10-9---------------------------------|
---10br10~~~-9-10p9-------------------------------12b--12br(12)b--12br(12)p10~~~-|
-7-------------------------------------------------------------------------------|
---------------------------------------------------------------------------------|
---------------------------------------------------------------------------------|
---------------------------------------------------------------------------------|

--19b-19b-19-17-----22b-22b---22b-22b--21---------|
--------------------------------------------------|
--------------------------------------------------|
--------------------------------------------------|
--------------------------------------------------|
--------------------------------------------------|

Questions, comments, or requests, e-mail krinks@apk.net




Tab done by: Jeremy at 5403208@mail-1.ns.net

****TUNED IN OPEN A chord diagramD MajorD AND A chord diagramA augmentedA HALF STEP DOWN****


Tuning (low to high):  D-A-D-F#-A-D


Rythym Figure #1

-4--7-6-4-4-4-4---4-4--4-4-|
-4--4-4-4-7-6-4---4-4--4-4-|
-4--4-4-4-4-4-4---5-4--5-4-|
-4--4-4-4-4-4-4---4-4--4-4-|
-4--4-4-4-4-4-4---4-4--4-4-|
-4--4-4-4-4-4-4---4-4--4-4-|


Rythym Figure #2

-3-2-0-0-0-0---0-0--0-0-|
-0-0-0-3-2-0---0-0--0-0-|
-0-0-0-0-0-0---2-0--2-3-|
-0-0-0-0-0-0---0-0--0-0-|
-0-0-0-0-0-0---0-0--0-0-|
-0-0-0-0-0-0---0-0--0-0-|


Intro: Fig. 1, Fig. 2, Fig. 1, Fig. 2


Verse: Fig. 1 x2, Fig. 2, Fig. 1


Chorus: ("You know it's been on my mind...")

-7----7----7--7----7--7--7---7--7--6----6---6--6---9---9--9--9---9--9--9--9-|
-7---10---10--7----7--7-10--10-10--6----9---9--9--12--12-12--9---9--9-12-12-|
-7----7----7--7----7--7--7---7--7--6----6---6--6---9---9--9--9---9--9--9--9-|
-7----7----7--7----7--7--7---7--7--6----6---6--6---9---9--9--9---9--9--9--9-|
-7----7----7--7----7--7--7---7--7--6----6---6--6---9---9--9--9---9--9--9--9-|
-7----7----7--7----7--7--7---7--7--6----6---6--6---9---9--9--9---9--9--9--9-|

Repeat Verse for ost-chorus


2nd and 3rd Post-chorus picking figures:

-----------------------------------2-------|
-------0--------2-------4------------0-----|
-----3---3--------3-------3-----3------3---|
-----------------------------------------0-|
-------------------------------------------|
-4-----------4-------4-------4-------------|

--------------------------------0-------|
------0-------2------4------------4-----|
----3---3-------3------3-----3------3---|
--------------------------------------0-|
----------------------------------------|
-0---------0-------0------0-------------|


Outro:

----0---------0---------0---------0------|
--------4----------4---------4---------4-|
-----------------------------------------|
-----------------------------------------|
-4----4----4----4----4----4----4----4----|
-4----4----4----4----4----4----4----4----|

---------0---------0---------0---------0-|
---4----------4---------4---------4------|
-----------------------------------------|
-----------------------------------------|
-0----0----0----0----0----0----0----0----|
-0----0----0----0----0----0----0----0----|


After playing outro a few times, rest for 1/2 measure
and play this:


----0-----------------------0------|
---------4-----------------------4-|
---------0-----------------------0-|
-----------------------------------|
-4----4------------------0----0----|
-4----4------------------0----0----|

------------------------------|
---------9^11-------9^11^9----|
-7^8^7----------------------8-|
------------------------------|
------------------------------|
------------------------------|





The relative tuning for this song is definitely DADF#AD(low to high)
despite many postings of an alternate tuning (DADF#DG).  Believe me
I've tried and it is nearly impossible to play it this way.  Any way,
if your playing along with the album or something, because AIC tunes
1/2 step down always, the actual tuning would be C#/G#/C#/F/C#/F#, but
who has time to do that anyway?  The previous posting of this has the
first part half right at least.


Verse Fig.1 (play twice on most times)

D-|-4-4-7-6-4-4-4-4-----4-4-x---4-x-4-|   <- x=fret hand muting
A-|-4-4-4-4-4-7-6-4-----4-4-x---4-x-4-|
A chord diagramF#F#|-4-4-4-4-4-4-4-4-----5-4-x---5-x-7-|
D-|-4-4-4-4-4-4-4-4-----4-4-x---4-x-4-|
A-|-4-4-4-4-4-4-4-4-----4-4-x---4-x-4-|
D-|-4-4-4-4-4-4-4-4-----4-4-x---4-x-4-|


Verse Fig.2 (Follows Fig.1, play once)

D-|-0-0-3-2-0-0-0-0-----0-0-x---0-x-0-|   <- x=pick hand muting
A-|-0-0-0-0-0-3-2-0-----0-0-x---0-x-0-|
A chord diagramF#F#|-0-0-0-0-0-0-0-0-----2-0-x---2-x-3-|
D-|-0-0-0-0-0-0-0-0-----0-0-x---0-x-0-|
A-|-0-0-0-0-0-0-0-0-----0-0-x---0-x-0-|
D-|-0-0-0-0-0-0-0-0-----0-0-x---0-x-0-|

Thie previous posting had the chorus right, but if you didn't catch
it, here it is again.


Chorus (play once)

D-|-7----7----7--7----7--7--7---7--7--6--|
A-|-7---10---10--7---10-10-10--10-10--9--|
A chord diagramF#F#|-7----7----7--7----7--7--7---7--7--6--|
D-|-7----7----7--7----7--7--7---7--7--6--|
A-|-7----7----7--7----7--7--7---7--7--6--|
D-|-7----7----7--7----7--7--7---7--7--6--|


--6---6--6---9---9--9--9---9--9--9--9|
--9---9--9---9--12-12--9---9--9--9--9|
--6---6--6---9---9--9--9---9--9--9--9|
--6---6--6---9---9--9--9---9--9--9--9|
--6---6--6---9---9--9--9---9--9--9--9|
--6---6--6---9---9--9--9---9--9--9--9|

                                                   pg.1
(on the chorus, listen to the song or use your own judgement on when
to hit that one note in each chord with your pinky.)

Bridge Fig.1 (listen to song for when to play this)
D-|-----------------------------------2-------|
A-|-------0--------2-------4------------0-----|
A chord diagramF#F#|-----3---3--------3-------3-----3------3---|Immediately followed by
D-|-----------------------------------------0-|      Fig.2
A-|-------------------------------------------|
D-|-4-----------4-------4-------4-------------|


Bridge Fig.2
D-|--------------------------------0-------|
A-|------0-------2------4------------4-----|
A chord diagramF#F#|----3---3-------3------3-----3------3---|Then return to Fig.1
D-|--------------------------------------0-|     again.
A-|----------------------------------------|
D-|-0---------0-------0------0-------------|


Outro - new and improved
D-|----0---------0---------0---------0-------|
A-|--------4----------4---------4---------4--|
A chord diagramF#F#|--------0--------------------0------------|
D-|------------------------------------------|
A-|-4----4----4----4----4----4----4----4-----|
D-|-4----4----4----4----4----4----4----4-----|

D-|---------0---------0---------0---------0--|
A-|---4----------4---------4---------4-------|
A chord diagramF#F#|---0--------------------0-----------------|Then Repeat this a
D-|------------------------------------------| couple times.
A-|-0----0----0----0----0----0----0----0-----|
D-|-0----0----0----0----0----0----0----0-----|
To end the last repeat of the outro, the bottom 3 strings are strum
like this.
D-|-------|
A-|-------|
A chord diagramF#F#|-------|
D-|---0---|
A-|---0---|
D-|---0---|

At the end, it repeats only half a bar of the outro, like this.
D-|----0-----------------------0-------|
A-|---------4-----------------------4--|
A chord diagramF#F#|---------0-----------------------0--|
D-|------------------------------------|
A-|-4----4------------------0----0-----|
D-|-4----4------------------0----0-----|

And the lead plays this one weird riff with a few variations.
D-|---------------------------------|
A-|----------9b11-------9-9b11r9----|
A chord diagramF#F#|--7b8r7------------------------8-|
D-|---------------------------------|
A-|---------------------------------|
D-|---------------------------------|





here it is.. best i could figure out (just  the intro/chorus/whatever)
(a poorly tabbed out song by: ADAM aka MeltTheSky@aol.com)
btw this is my first time tabbing anything ever! :-) hope it doesnt suck!

----------------------------------------|----------------------------------------------|
-10---10---10--10-----------------------|--6-6-6---6-6-6--6-6-6-6----------------------|
---------10---13---12--10--10--10--10-----------|--6-9-8---6-6-6--6-6-6-6--------------|
-----------------10---10---10--10--13--12--10---8--8--7-|--6-6-6---9-8-6--6-8----------|
8-6-----------------------------------------------------8--8--8-|----------------------|
------------------------------------------------------------------------|--------------|
---------------------------------------------------------------------------------------|

~adam





Tuning- E#, A#, D#, G#, B#, A chord diagramE#E# (I recommend using a capo)


Riff 1-
1: 0---0---3---2---0---X---X---X---0---0---X---0---0-|
2: 0---0---X---X---X---3---2---0---0---1---0---1---0-|
3: 1---1---1---1---1---1---1---1---1---2---1---2---1-|
4: 2---2---2---2---2---2---2---2---2---2---2---2---2-|
5: 2---2---2---2---2---2---2---2---2---X---2---X---2-|
6: 0---0---0---0---0---0---0---0---0---X---0---X---0-|


Riff 2-
1: 0---0---0---0---0---0---0---0---0---0---0-|
2: 1---1---4---3---1---X---X---1---1---1---1-|
3: X---X---X---X---X---3---2---0---X---2---X-|
4: 2---2---2---2---2---2---2---2---2---2---2-|
5: 3---3---3---3---3---3---3---3---3---3---3-|
6: X---X---X---X---X---X---X---X---X---X---X-|


-And this repeats a bunch of times, you can figure it out.
 This is the chorus riff. You'll have to practice it alot.


1: 3---3---X---|(repeats or something)
2: 6---6---X---|
3: 4---4---X---|
4: 3---3---X---|
5: 5---5---X---|
6: 3---3---X---|

Then you slide that chord down to the 2nd fret and play it there.
Then this chord

1: 3---3---2---3-|
2: 2---2---2---2-|
3: 2---2---2---2-|
4: 2---2---2---2-|
5: 0---0---0---0-|
6: X---X---X-----|X and then back to e chord riff (Riff 1)

You should be able to figure the solo out for yourself.
It's really easy except for the super high ending part,
and My les paul only has 22 frets, so I can't reach that
high unless I make a really hard bend. Oh well. The tab
might not be exactly right because I didn't feel like
writing the chords as many times as they are played.
You should be able to figure it out...





OK everybody this is my first tab so bear with me on this one


Intro:


e:4-3-1----------1-1-1                                ----------------------4---|
b:-------4-3-1---1-3-1                                5-4-2-----------------6---|
g:---------------2-3-2 repeat that a few times then: --------4-3-1----------6---|
d:---------------3-3-3                               -----------------------6---|
a:---------------3-3-3                               -----------------------4---|
e:---------------1-1-1                                  ----------------------x-|


For the next part you use these three chords:

e:4-3-6
b:4-3-6
g:5-4-7
d:6-5-8     strum the last one longer than the rest.
a:6-5-8
e:4-3-6


this part goes under the solo:

e:-------------------------|
b:-------------------4-----|
g:-1-1---3-3---5-5-5-------|
d:3---3-3---3-3------6-----|
a:-----------------------6-|

Almost there ...

Sign in to get your own page with links to favourite songs and more. You are just one click away...

Login with Facebook Login with Google