Guitar Tabs Explorer
Alice In Chains tabs for Again

Tabs

Alice in chains - " Again "

A chord diagramG+G  --------------5----------------4
A chord diagramD MajorD  4-4-4-4-4-4-4-5--5-5-5-5-5-5-5-4
A chord diagramA augmentedA  4-4-4-4-4-4-4----5-5-5-5-5-5-5-
A chord diagramE MajorE  2-2-2-2-2-2-2----3-3-3-3-3-3-3-   Main riff/verse
 p.m............    .............

A chord diagramD MajorD  4-4-4-4-4-4---4-4-4-4-4-4-4
A chord diagramA augmentedA  4-4-4-4-4-4---5-5-5-5-5-5-5       chorus
A chord diagramE MajorE  2-2-2-2-2-2---3-3-3-3-3-3-3
  that's where layne jerry keep moaning, to get the rythym just right
listen to the tape

A chord diagramG+G --5--      -----
A chord diagramD MajorD 5-5-5      7-8-8
A chord diagramA augmentedA 5---5      7-8-8  pre " woo-hoo " part
A chord diagramE MajorE 3---3      5-6-6
      ^     ^
 in this middle part, he does a slide w/ harmonics, by i don't know at
what frets, figure it out yourselfs

A chord diagramG+G --------5--
A chord diagramD MajorD 8-7-7-5-5-5
A chord diagramA augmentedA 8-7-7-5---5
A chord diagramE MajorE 6-5-5-3---3
  Hope this helped, i should have written this earlier cuz i knew it
for a while. Feedback, correction, or if u just want to talk about the
great AiC or another good band, e-mail me at [email protected] ( the
third 1 is a one, not an l like the other two )



 "Again" by ALICE IN CHAINS
 --------------------------------------------------
 ------------------------------------------------------
 Tabbed by Eyal Babich (04:02 14/05/1997)
 -----------------------------------------------------------

E-MAIL - [email protected]

Tunning:
 tune down 1/2 step (low to high:Eb A chord diagramAbAb A chord diagramDbDb A chord diagramGbGb A chord diagramBb majorBb A chord diagramEb MajorEb)
 ------------------------------------------------------------------
 P.M.----------|            Palm Mute

 ~~~~~			    Let Ring

 N.H.			    Natural Harmonics
 P.H.			    Pinch Harmonics
 T.H.			    Touch Harmonics
 ^			    Bend Fret
 ----------------------------------------------------------------------

 Chords Used:

 A chord diagramAb5Ab5	Db5/Ab	   A chord diagramAbAb	   A chord diagramG+G	   A chord diagramA augmentedA
 ----------------------------------------
 ----------------------------------------
 ---------6---------5--------------2-----
 -6-------6---------6--------------2-----
 -6-------4---------6--------------2-----
 -4-----------------4------3-------------


 INTRO
         Rhy. Fig 1


  A chord diagramAb5Ab5	 Db5/Ab A chord diagramAb5Ab5        A chord diagramD5D5   A chord diagramG5G5		   A chord diagramAb5Ab5 A chord diagramDb5Db5  A chord diagramAb5Ab5       A chord diagramD5D5
-------|----------------------|--------------------|------------------------|
-------|----------------------|--------------------|------------------------|
-------|-----6-------------7--|--------------------|----6-------------7-----|
-------|-----6-------------7--|-5-5-5-5-5-5-5------|----6-------------7-----|
--6-6--|--6-----6-6-6-6-6-----|-5-5-5-5-5-5-5-5-5--|-6-(4)-6-6-6-6-6-(5)----|
--4-4--|--4-----4-4-4-4-4-----|-3-3-3-3-3-3-3-3-3--|-4-----4-4-4-4-4--------|

 A chord diagramG5G5 (stil intro)
--------------------------|
--------------------------| (Repeat)
------------------------o-|     |
---5-5-5-5-5-5-5--------o-|-----|
---5-5-5-5-5-5-5-X-X------|
---3-3-3-3-3-3-3-X-X------|




 VERSES

  A chord diagramAb5Ab5      Db5/Ab A chord diagramAb5Ab5   A chord diagramD5D5  A chord diagramG5G5             A chord diagramD5D5   A chord diagramG5G5

  "Hey......................Let'em Do It Again, Yeah........ "



 CHORUS


 Rhy. Fig. 2 (Two Guitars)

 A chord diagramAb5Ab5 Db5/Ab A chord diagramAbAb	     A chord diagramG+G ~~~ A chord diagramA augmentedA               A chord diagramAb5Ab5 Db5/Ab A chord diagramAbAb	 A chord diagramG+G ~~ A chord diagramA augmentedA A chord diagramG+G
------------------------|-(0)----0-----0--|-------------------------|--------0|
------------------------|--2-----2-----2--|-------------------------|-2---2--2|
------------------------|--0-----0-----0--|-------------------------|-0---0--0|
------------------------|-----------------|-------(4)--(4)----------|---------|
--------4-----5/4-------|-----------------|--------4----5-/4--------|---------|
--4--4--4--4------4--3--|----(3)----------|--4--4--4--4-------4--3--|---3-----|


 "....Again And Again...

 A chord diagramAb5Ab5 Db5/Ab  A chord diagramAbAb     A chord diagramG+G ~~~ A chord diagramA augmentedA		    A chord diagramAb5Ab5 Db5/Ab        A chord diagramG+G ~~ A chord diagramA augmentedA
-------------------------|-(0)----0----0--|---------------------|----------0--|
-------------------------|--2-----2----2--|---------------------|--2---2---2--|
-------------------------|--0-----0----0--|---------------------|--0---0---0--|
-------(4)---(4)---------|----------------|------(4)---4--------|-------------|
--------4-----5/4--X-----|----------------|-------4----5/4------|-------------|
--4--4--4--4----------3--|----(3)---------|-4--4--4--4-----4--3-|----3--------|


 FILL 1 (Guitar 3)

        ~~~~~~~~~~~~~~
-------------------------------|
-------------------------------|
-------------------------------|
-------------------------------|
-------------------------------|
---3--3--3--3--3--3--3\--------|


 VERSE

  A chord diagramAb5Ab5 Db5/Ab  A chord diagramAbAb	 A chord diagramD5D5  A chord diagramG5G5    A chord diagramAb5Ab5 A chord diagramDb5Db5 A chord diagramAb5Ab5           A chord diagramD5D5        A chord diagramG5G5

 "Hey........................I Know I Made The Same Mistakes.......Oh....


  GUITAR 1:

          N.H		               N.H.                      N.H.
-----------|----------------|-----------|--------------|----------|-----------|
-----------|----------------|-----------|--------------|----------|-----------|
-----6-----|----------7--7--|--------5--|-----------7--|-----5----|------7--7-|
-----6--6--|--0---5---7--7--|--6--6--6--|--0--5--7--7--|-6-6-6----5--5---7--7-|
--6--4--6--|------5---5--5--|--6--4--6--|-----5--5--5--|-6-4-6-------5---5--5-|
--4--4--4--4------3---------|--4--4--4--4-----3--5-----|-4-4-4--4----3--------|
     pitch:Ab                           A chord diagramAbAb		       A chord diagramAbAb A chord diagramD MajorD

 CHORUS  (Guitar 1 & 2)



 FILL 3

  				full (hold bend)
 1/2 ~~~~~~~~~~~~~~~~~~~~   --------------------------
  |			    | 	    P.H.	     |
--|----------------------|--|---------------------|--|-------------------|
--|----------------------|--7^^---7--7--7--7--7---|-(7)--7-------6^------|
--6----------------------|------------------------|----------------------|
-------------------------|------------------------|----------------------|
-------------------------|------------------------|----------------------|
-------------------------|------------------------|----------------------|

 "......doot doot......yeah.....doot doot......yeah.............."

 VERSE

---------------------------------|----------------------------------|
-----------------N.H.------------|----------------------------------|
----------5-------|-------7--7---|------6--------------------7---7--|
--6---6---6-------|----5--7--7---|------6---6-----------5----7---7--|
--6---4---6-------|----5--5--5---|--6---4---6-----------5----5---5--|
--4---4---4---4---3----3---------|--4---4---4---4---3---3-----------|
        pitch:Ab  A chord diagramBB			      A chord diagramAbAb  A chord diagramBB


-------------------------------|
-------------------------------|
-----6-----------------7--7----|
--6--6--6----------5---7--7----|
--6--4--6----------5---5--5----|
--4-----4---4--3---3-----------|
           A chord diagramAbAb  A chord diagramBB



 FILL 2  (Guitar 3)

--------|----------|----------|
--------|----------|----------|
--------|----------|----------|
--------|----------|----------|
--------|----------|----------|
----4---|----------|----------|


GUITAR 3:

           let ring.......
   ~~~~~~~~~~~~~~~~~~~~~~~~~~~~~~~~~~~~~~~~~~~~~
   1/2-----------------------------
    |				  |		       full (hold bend)
----|-------------------------|---|-----------------|---|--------------------|
----|-------------------------|---|-----------------|--7^^---7--7--7--7--7---|
---(6)------(6)---------------|--(6)----------------|------------------------|
------------------------------|---------------------|------------------------|
------------------------------|---------------------|------------------------|
------------------------------|---------------------|------------------------|


GUITAR 2:

-----------------------------|-----------------------------|
-----------------------------|-----------------------------|
-----6------------------7--7-|-----6----------------7--7---|
--6--6--6-----------5---7--7-|--6--6--6----------5--7--7---|
--6--4--6-----------5---5--5-|--6--4--6----------5--5--5---|
--4-----4---4---3---3--------|--4-----4---4---3--3---------|

-------------------------|
-------------------------|
---6-------------7--7----|
-6-6-6--------5--7--7----|
-6-4-6--------5--5--5----|
-4---4--4--3--3----------|

		       |
		       |
GUITAR 3 (with Gtr.2---| ):


	 	   1/2--------------------|			full
	 ~~~~~~~~~~ |			  |	~~~~~~~~~      ------------
--------------------|----|----------------|--|---------------------|----------|
---(7)---7----------|----|----------------|--|---------------------|----------|
--------------------6^^--|---------------(6)-|-(6)-------4-16-(4^)-|------(4)-|
-------------------------|-------------------|---------------------|----------|
-------------------------|-------------------|---------------------|----------|
-------------------------|-------------------|---------------------|----------|



 GUITAR 1 & 2:

-----------------------|----------------------------|
-----------------------|----------------------------|
----6-------------7--7-|-----6-----------------7----|
--6-6-6--------5--7--7-|-----6-----------------7----|
--6-4-6--------5--5--5-|--6-----6--6--6--6--6-------|
--4---4--4--3--3-------|--4-----4--4--4--4--4-------|
 |
 repeat this part 2 more times



 3rd VERSE (guitar 3):

-----------------------------|---------------------------|
-----------------------------|---------------------------|
-(4)-------------------------|-----6------------------7--|
--5--5--5--5--5--5--5--------|-----6------------------7--|
--5--5--5--5--5--5--5--5--5--|--6-(4)-6--6--6--6--6--(5)-|
--3--3--3--3--3--3--3--3--3--|--4-----4--4--4--4--4------|


----------------------------|--------------------------|
----------------------------|--------------------------|
----------------------------|o----6-----------------7--|
--5--5--5--5--5--5--5-------|o----6-----------------7--|
--5--5--5--5--5--5--5--X-X--|--6-----6--6--6--6--6-----|
--3--3--3--3--3--3--3--X-X--|--4-----4--4--4--4--4-----|


  (stil 3rd verse)


---------------------|-------------------------|-----------------------------|
---------------------|-------------------------|-----------------------------|
----6------------7-7-|----6----------------7-7-|-----5-------------7--7------|
--6-6-6-------5--7-7-|--6-6--6----X--0--5--7-7-|-6-6-6----X--0--5--7--7------|
--6-4-6-----5-5--5-5-|--6-4--6----------5--5-5-|-6-4-6----------5--5--5------|
--4-4-4--4--3-3------|--4----4--4-------3------|-4-4-4--4-------3------------|

 "......Extending Part Of Me...




 OUTRO

 guitars 1 & 2 play riff A chord diagramA augmentedA (intro) four times simile
 guitar 3 plays fill 3
			     full
--------------------------|--------------------------|---------------------|
--------------------------|--7^^---7--7--7--7--7-(7)-|--7------------------|
------6--5-----------7--7-|--------------------------|-----------6---(6^)--|
---6--6--6--------5--7--7-|--------------------------|---------------------|
---6--4--6--------5--5--5-|--------------------------|---------------------|
---4--4--4--4--3--3-------|--------------------------|---------------------|
			     "....doot doot....yeah.....doot doot....."
guitar 3:	    1/2
---------------------|----|-------------------|-------------|
-(7)---7-------------|----|-------------------|-------------|
----------------6---(6^)--|--(6)--------------|-(6)--------o|
--------------------------|-------------------|------------o|
--------------------------|-------------------|-------------|
--------------------------|-------------------|-------------|
     full
------------------------------|
-----7^^--7--7--7--7--7-------|
-(6)--------------------------|
------------------------------|
------------------------------|
------------------------------|


 GUITAR 1 & 2

--------------------------|--------------------------|
--------------------------|--------------------------|
-----6--------------7--7--|------------------7--7----|
--6--6--6--------5--7--7--|--6-6-6--------5--7--7----|
--6--4--6--------5--5--5--|--6-4-6--4--4--5--5--5----|
--4-----4--4--3--3--------|--4-4-4--------3----------|
		      |
repeat 2 more times---|



-------------------------------|----------------------------|-----------------|
--(7)---7----------------------|----------------------------|-----------------|
--------------------6----(6^)--|-------18/6-------18/(6)----|-(6)---------(6)-|
-------------------------------|----------------------------|-----------------|
-------------------------------|----------------------------|-----------------|
-------------------------------|----------------------------|-----------------|


             N.H.		          N.H.
---------------------------|-------------------|
---------------------------|-------------------|
-----6---------------7--7--|-----6-------------|
--6--6--6--------5---7--7--|--6--6--6----------|
--6--4--6--------5---5--5--|--6--6--6-------3--|
--4-----4--4--3--3---------|--4-----4---4---3--|
		       |
repeat one more time----
ⓘ Guitar tab for 'Again' by Alice In Chains, an alternative metal band formed in 1987 from Seattle, Washington, USA. Alice In Chains is known for their gritty rock/pop music.