Log in

One click and you are in

Login with Facebook Login with Google

Why sign up and log in

Guitar Tabs Explorer
Alexisonfire tabs for This could be anywhere in the world

This Could Be Anywhere In The World tab by Alexisonfire

Alexisonfire tabs for This could be anywhere in the world

Guitar tabs

--------------------------------------------------------------------------------------
                 This Could Be Anywhere In The World - Alexisonfire
--------------------------------------------------------------------------------------

Tab by:	Matthew Downey

Tuning:	Standard (EADGBE)
Notes:	T is 10th fret,
	A chord diagramE MajorE is 11th fret,
	W is 12th fret,
	H is 13th fret,
	A chord diagramFF is 14th fret,
	S is 16th fret.
INTRO:
                            x2
e|---------------------------|---------------------------|
b|---------------------------|---------------------------|
g|--------------------------o|---------------------------|
d|--E--E--------------------o|--------------------E-E-E--|
a|--E--E---------------------|--------------------E-E-E--|
e|--9--9---------------------|--------------------9-9-9--|


VERSE:
                                                                                    x2
e|---------------------------|---------------------------|---------------------------|
b|--9-------------9-----7----|--9-----------7-9-9b10r9---|---------------------------|
g|----6-8-9-8-6----6-8-9-9-8-|----6-8-9-8-6--------------|o-------------------------o|
d|---------------------------|---------------------------|o-E--E--------------------o|
a|---------------------------|---------------------------|--E--E---------------------|
e|---------------------------|---------------------------|--9--9---------------------|
                                                                                    x2
e|---------------------------|---------------------------|---------------------------|
b|------9b10r9-7-------------|-----9b10r9-7---7/12-------|---------------------------|
g|--6------------8-9-(9)/10--|--6-----------8------------|o-------------------------o|
d|---------------------------|---------------------------|o-E--E--------------------o|
a|---------------------------|---------------------------|--E--E---------------------|
e|---------------------------|---------------------------|--9--9---------------------|

e|---------------------------|---------------------------|
b|--9-------------9-----7----|--9-----------7-9-9b10r9---|
g|----6-8-9-8-6----6-8-9-9-8-|----6-8-9-8-6--------------|
d|---------------------------|---------------------------|
a|---------------------------|---------------------------|
e|---------------------------|---------------------------|

CHORUS:

e|---------------------------|---------------------------|
b|---------------------------|---------------------------|
g|---------------------------|---------------------------|
d|--E--EE-E--EE-E--EE-E--EE--|--7--77-7--77-7--77-7--77--|
a|--E--EE-E--EE-E--EE-E--EE--|--7--57-7--77-7--77-7--77--|
e|--9--99-9--99-9--99-9--99--|--5--55-5--55-5--55-5--55--|

e|---------------------------|---------------------------|
b|---------------------------|---------------------------|
g|---------------------------|---------------------------|
d|--4--44-4--44-4--44-4--44--|--7--77-7--77-9--99-9--99--|
a|--4--44-4--44-4--44-4--44--|--7--77-7--77-9--99-9--99--|
e|--2--22-2--22-2--22-2--22--|--5--55-5--55-7--77-7--77--|

e|---------------------------|---------------------------|
b|---------------------------|---------------------------|
g|---------------------------|---------------------------|
d|--E--EE-E--EE-E--EE-E--EE--|--7--77-7--77-7--77-7--77--|
a|--E--EE-E--EE-E--EE-E--EE--|--7--57-7--77-7--77-7--77--|
e|--9--99-9--99-9--99-9--99--|--5--55-5--55-5--55-5--55--|

e|---------------------------|---------------------------|
b|---------------------------|---------------------------|
g|---------------------------|---------------------------|
d|--4--44-4--44-4--44-4--44--|--7-7-7-------------E-E-E--|
a|--4--44-4--44-4--44-4--44--|--7-7-7-------------E-E-E--|
e|--2--22-2--22-2--22-2--22--|--5-5-5-------------9-9-9--|


VERSE


BRIDGE I:
                                                         x2
e|---------------------------|---------------------------|
b|---------------------------|---------------------------|
g|o--------------------------|--------------------------o|
d|o-F--E-x-xx--S--E-x-H-FF-F-|--F--E-x-xx----7--7--2-2--o|
a|--F--E-x-xx--S--E-x-H-FF-F-|--F--E-x-xx----7--7--2-2---|
e|--W--9-x-xx--F--9-x-E-WW-W-|--W--9-x-xx----5--5--0-0---|


BRIDGE II: x2

e|---------------------------|---------------------------|
b|---------------------------|---------------------------|
g|---------------------------|---------------------------|
d|--E-E-E-E/WE-E-E-E-E/WE--|--E-E-E-E/WE--7--7--2-2---|
a|--E-E-E-E/WE-E-E-E-E/WE--|--E-E-E-E/WE--7--7--2-2---|
e|--9-9-9-9/T9-9-9-8-9/T9--|--9-9-9-9/T9--5--5--0-0---|


BRIDGE III:

e|---------------------------|---------------------------|
b|---------------------------|---------------------------|
g|---------------------------|---------------------------|
d|----E----------------------|--------7------------------|
a|---E-----------------------|-----7---------------------|
e|--9------------------------|--5------------------------|


BRIDGE II

e|---------------------------|---------------------------|
b|---------------------------|---------------------------|
g|o--------------------------|---------------------------|
d|o-E-E-E-E/WE-E-E-E-E/WE--|--E-E-E-E/WE--------------|
a|--E-E-E-E/WE-E-E-E-E/WE--|--E-E-E-E/WE--------------|
e|--9-9-9-9/T9-9-9-8-9/T9--|--9-9-9-9/T9--------------|


CHORUS (FIRST 9 BARS)

e|---------------------------|
b|---------------------------|
g|---------------------------|
d|--7--77-7--77--E-E-E-------|
a|--7--77-7--77--E-E-E-------|
e|--5--55-5--55--9-9-9-------|
ⓘ Guitar tab for 'This Could Be Anywhere In The World' by Alexisonfire, a post-hardcore band formed in 2001 from St, Catharines, Ontario, Canada. They retired in 2012

Almost there ...

Sign in to get your own page with links to favourite songs and more. You are just one click away...

Login with Facebook Login with Google