Log in

One click and you are in

Login with Facebook Login with Google

Why sign up and log in

Guitar Tabs Explorer
Alexisonfire tabs for This could be any where in the world

This Could Be Any Where In The World tab by Alexisonfire

Alexisonfire tabs for This could be any where in the world

Guitar tabs

artist - alexisonfire
title - this could be any where in the world
album - crisis
tunning - standard
intro
e|----------------------|---------------|
b|----------------------|---------------|
g|----------------------|---------------|
d|----------------------|---------------|
a|----11--11-----11--11-|------11-11-11-|
e|----9---9------9---9--|------9--9--9--|


verse
e|--------------------------|
b|---9----------9------7-9--|
g|----6-8-9-8-6--6-8-9------|
d|--------------------------|
a|--------------------------|
e|--------------------------|
(the intro is the same as the verse)


chorus
e|---------------------------------------------|
b|---------------------------------------------|
g|---------------------------------------------|
d|--6-6-6-6-6-6-6------------------------------|
a|--4-4-4-4-4-4-4--7-7-7-7-7-7-7--4-4-4-4-4-4-4|
e|-----------------5-5-5-5-5-5-5--2-2-2-2-2-2-2|


bridge
e|------------------------------|
b|------------------------------|
g|------------------------------|
d|---9-6-6--11-6-6--------------|
a|---7-4-4--9--4-4--------------|
e|------------------------------|

Almost there ...

Sign in to get your own page with links to favourite songs and more. You are just one click away...

Login with Facebook Login with Google