Log in

One click and you are in

Login with Facebook Login with Google

Why sign up and log in

Guitar Tabs Explorer
Alexander 23 guitar tabs for Idk you yet

Guitar tabs with lyrics

Tuning: Standard (E A D G B E)


Intro:

e|---------------------------------------------------------------|
B|-----1-------1-------1-------1-------1-------1-------1-------1-|
G|---------------------------------------------------------------|
D|-------------------------3-------------------------------------|
A|-3-------3-------3---------------3-------3-------3-------3-----|
E|---------------------------------------------------------------|

e|-------------------------------------------------------|
B|-----1-------1-------1-------1-------1-------1-------1-|
G|-------------------------------------------------------|
D|-----------------3-------------------------------------|
A|-0-------0---------------3-------3-------3-------3-----|
E|-------------------------------------------------------|

e|------------------------------------|
B|-----1-------1-------1-------1------|
G|------------------------------------|
D|------------------------------------|
A|-3-------3-------3-------3----------|
E|------------------------------------|
                      How can you


Verse 1:

e|-------------------------------------------------------|
B|-----1-------1-------1-------1-------1-------1-------1-|
G|-------------------------------------------------------| x4
D|-----------------3-------------------------------------|
A|-0-------0---------------3-------3-------3-------3-----|
E|-------------------------------------------------------|

miss someone you've never met?

'Cause I need you now but I don't know you yet

But can you find me soon because I'm in my head?

Yeah, I need you now but I don't know you yet


Chorus:

e|------------------------------------|
B|-----1-------1-------1-------1------|
G|------------------------------------|
D|------------------------------------|
A|-3-------3-------3-------3----------|
E|------------------------------------|
                  'Cause lately it's been

e|-------------------------------------------------------|
B|-----1-------1-------1-------1-------1-------1-------1-|
G|-------------------------------------------------------| x4
D|-----------------3-------------------------------------|
A|-0-------0---------------3-------3-------3-------3-----|
E|-------------------------------------------------------|
hard

They're selling me for parts

And I don't wanna be a modern art

But I only got half a heart

To give to you


Verse 2:

e|------------------------------------|
B|-----1-------1-------1-------1------|
G|------------------------------------|
D|------------------------------------|
A|-3-------3-------3-------3----------|
E|------------------------------------|
                    How can you

e|-------------------------------------------------------|
B|-----1-------1-------1-------1-------1-------1-------1-|
G|-------------------------------------------------------| x8
D|-----------------3-------------------------------------|
A|-0-------0---------------3-------3-------3-------3-----|
E|-------------------------------------------------------|


miss someone you've never seen?

Oh, tell me are your eyes brown, blue, or green?

And do you like it with sugar and cream?

Or do you take it straight, oh, just like me?

Yeah, lately it's been hard

They're selling me for parts

And I don't wanna be a modern art

But I only got half a heart

To give to you


Bridge:
e|-------------------------------------------------------|
B|-----1-------1-------1-------1-------1-------1-------1-|
G|-------------------------------------------------------| x4
D|-----------------3-------------------------------------|
A|-0-------0---------------3-------3-------3-------3-----|
E|-------------------------------------------------------|

And I hope it's enough

Ooh, ooh-ooh, ooh-ooh, ooh

Ooh, ooh-ooh, ooh-ooh, ooh

Ooh, ooh-ooh, ooh-ooh, ooh

Ooh, ooh-ooh, ooh-ooh, ooh


Chorus:

e|------------------------------------|
B|-----1-------1-------1-------1------|
G|------------------------------------|
D|------------------------------------|
A|-3-------3-------3-------3----------|
E|------------------------------------|
                    How can you

e|-----------------------------------------|
B|-1---------1---1-------------------------|
G|-----------------------------------------| x4
D|-----------3-----------------------------|
A|-0-------------3-------------------------|
E|-----------------------------------------|

miss someone you've never met?

'Cause I need you now but I don't know you yet

But can you find me soon because I'm in my head?

Yeah, I need you now but I don't know you yet


Outro:

e|---------------|
B|-----1-------1-|
G|---------------|
D|---------------|
A|-3-------2-----|
E|---------------|

e|-------------------------------------------------------|
B|-----1-------1-------1-------1-------1-------1-------1-|
G|-------------------------------------------------------| x3
D|-----------------3-------------------------------------|
A|-0-------0---------------3-------3-------3-------3-----|
E|-------------------------------------------------------|

I need you now but I don't know you yet

I need you now but I don't know you yet

I need you now but I don't know you yet

e|-----------------------------------------|
B|-1---------1---1-------------------------|
G|-----------------------------------------|
D|-----------3-----------------------------|
A|-0-------------3-------------------------|
E|-----------------------------------------|

I need you now but I don't know you yet

Other versions of Idk You Yet

Idk you yetChords
Idk you yet ukuleleChords
Idk you yet (Ver. 2)Tabs

↓ Add and view comments below ↓

What do you think about this song and these tabs?

Add your comments, questions, rant or a thumbs up below.

Almost there ...

Sign in to get your own page with links to favourite songs and more. You are just one click away...

Login with Facebook Login with Google