Log in

One click and you are in

Login with Facebook Login with Google

Why sign up and log in

Guitar Tabs Explorer
Alexander 23 guitar tabs for Idk you yet (Ver. 2)

Guitar tabs

Tuning: Standard (E A D G B E)


Intro:

e|---------------------------------------------------------------------------|
B|---------------------------------------------------------------------------|
G|-------0------0-------0-----0-----0-----0-----0----------------------------|
D|---------------------------------------------------------------------------|
A|------------------3--------------------------------------------------------|
E|---0------0--------------3-----3-----3-----3-------------------------------|

e|---------------------------------------------------------------------------|
B|---------------------------------------------------------------------------|
G|-------0------0-------0-----0-----0----------------------------------------|
D|---------------------------------------------------------------------------|
A|------------------3--------------------------------------------------------|
E|---0------0--------------3-----3-----3-------------------------------------|


Verse 1:

e|---------------0---0---0---------------------------------------------------------------|
B|---0-----------0------------3------3---0-----------0--------0-0-0---0------------------|
G|-------2---0---0------------0---2---------0----0------2--0--0-0-0---0--2--0--0---0---0-|
D|---------------------------------------------------------------------------------------|
A|--------------------------------3--------------------------------------3---------------|
E|---------------0----------0------------3-3--3---------------0-----0----------3-3---3---|


e|---------------0---0---0---------------------------------------------------------------|
B|---0-----------0------------3------3---0-----------0--------0-0-0---0--1--0--0---------|
G|-------2---0---0------------0---2---------0----0------2--0--0-0-0---0--2--0--0---0---0-|
D|---------------------------------------------------------------------------------------|
A|--------------------------------3--------------------------------------3---------------|
E|---------------0----------0------------3-3--3---------------0-----0----------3-3---3---|



Chorus:

e|---------------------------------------------------------------------------|
B|------0--------------------------------------------------------------------|
G|--0------0---2p0-------0h2----2--0h2/4---5-------0---0---0-----------------|
D|-------------------2---2------2----------5-------0-------------------------|
A|-----------------------------------------3---3-----------------------------|
E|-----------------------0---0---------------------3-3---3-------------------|

e|---------------------------------------------------------------------------|
B|---------------------------------------------------------------------------|
G|------2/4\2--0-----0h2---2--0h2/4--5-------0----0---0----------------------|
D|---0------------2--2-----2---------5-------0-------------------------------|
A|-----------------------------------3---3-----------------------------------|
E|-------------------0---0-------------------3--3---3------------------------|


e|---------------------------------------------------------------------------|
B|---------------------------------------------------------------------------|
G|------2/4\2--0-----0h2---2--0h2/4--5-------0----0---0----------------------|
D|-0-0------------2--2-----2---------5-------0-------------------------------|
A|-----------------------------------3---3-----------------------------------|
E|-------------------0---0-------------------3--3---3------------------------|


e|---------------------------------------------------------------------------|
B|---------------------------------------------------------------------------|
G|------2/4\2--0-----0h2---2--0--0----0----0--0---0---0----0-----------------|
D|-0-0------------2--2-----2----------2--------------------------------------|
A|---------------------------------3-----3-----------------------------------|
E|-------------------0---0----------------------3---3----3-------------------|



Verse 2:

e|---------------0---0---0---------------------------------------------------------------|
B|---0-----------0------------3------3---0-----------0--------0-0-0---0------------------|
G|-------2---0---0------------0---2---------0----0------2--0--0-0-0---0--2--0--0---0---0-|
D|---------------------------------------------------------------------------------------|
A|--------------------------------3--------------------------------------3---------------|
E|---------------0----------0------------3-3--3---------------0-----0----------3-3---3---|


e|---------------0---0---0---------------------------------------------------------------|
B|---0-----------0------------3------3---0-----------0--------0-0-0---0--1--0--0---------|
G|-------2---0---0------------0---2---------0----0------2--0--0-0-0---0--2--0--0---0---0-|
D|---------------------------------------------------------------------------------------|
A|--------------------------------3--------------------------------------3---------------|
E|---------------0----------0------------3-3--3---------------0-----0----------3-3---3---|


Chorus:
e|---------------------------------------------------------------------------|
B|------0--------------------------------------------------------------------|
G|--0------0---2p0-------0h2----2--0h2/4---5-------0---0---0-----------------|
D|-------------------2---2------2----------5-------0-------------------------|
A|-----------------------------------------3---3-----------------------------|
E|-----------------------0---0---------------------3-3---3-------------------|

e|---------------------------------------------------------------------------|
B|---------------------------------------------------------------------------|
G|------2/4\2--0-----0h2---2--0h2/4--5-------0----0---0----------------------|
D|---0------------2--2-----2---------5-------0-------------------------------|
A|-----------------------------------3---3-----------------------------------|
E|-------------------0---0-------------------3--3---3------------------------|


e|---------------------------------------------------------------------------|
B|---------------------------------------------------------------------------|
G|------2/4\2--0-----0h2---2--0h2/4--5-------0----0---0----------------------|
D|-0-0------------2--2-----2---------5-------0-------------------------------|
A|-----------------------------------3---3-----------------------------------|
E|-------------------0---0-------------------3--3---3------------------------|


e|---------------------------------------------------------------------------|
B|---------------------------------------------------------------------------|
G|------2/4\2--0-----0h2---2--0--0----0----0--0---0---0----0-----------------|
D|-0-0------------2--2-----2----------2--------------------------------------|
A|---------------------------------3-----3-----------------------------------|
E|-------------------0---0----------------------3---3----3-------------------|



Bridge:
e|---------------------------------------------------------------------------|
B|--0-----0------------------------------------------------------------------|
G|-----2-------2p0-------0h2----2--0h2/4---5-------0---0---0-----------------|
D|-------------------2---2------2----------5-------0-------------------------|
A|-----------------------------------------3---3-----------------------------|
E|-----------------------0---0---------------------3-3---3-------------------|

e|---------------------------------------------------------------------------|
B|---------------------------------------------------------------------------|
G|------2/4\2--0-----0h2---2--0h2/4--5-------0----0---0----------------------|
D|---0------------2--2-----2---------5-------0-------------------------------|
A|-----------------------------------3---3-----------------------------------|
E|-------------------0---0-------------------3--3---3------------------------|


e|---------------------------------------------------------------------------|
B|---------------------------------------------------------------------------|
G|------2/4\2--0-----0h2---2--0h2/4--5-------0----0---0----------------------|
D|-0-0------------2--2-----2---------5-------0-------------------------------|
A|-----------------------------------3---3-----------------------------------|
E|-------------------0---0-------------------3--3---3------------------------|


e|---------------------------------------------------------------------------|
B|---------------------------------------------------------------------------|
G|------2/4\2--0-----0h2---2--0--0----0----0--0---0---0----0-----------------|
D|-0-0------------2--2-----2----------2--------------------------------------|
A|---------------------------------3-----3-----------------------------------|
E|-------------------0---0----------------------3---3----3-------------------|


Verse 3:

e|---------------0---0---0---------------------------------------------------------------|
B|---0-----------0------------3------3---0-----------0--------0-0-0---0------------------|
G|-------2---0---0------------0---2---------0----0------2--0--0-0-0---0--2--0--0---0---0-|
D|---------------------------------------------------------------------------------------|
A|--------------------------------3--------------------------------------3---------------|
E|---------------0----------0------------3-3--3---------------0-----0----------3-3---3---|


e|---------------0---0---0---------------------------------------------------------------|
B|---0-----------0------------3------3---0-----------0--------0-0-0---0--1--0--0---------|
G|-------2---0---0------------0---2---------0----0------2--0--0-0-0---0--2--0--0---0---0-|
D|---------------------------------------------------------------------------------------|
A|--------------------------------3--------------------------------------3---------------|
E|---------------0----------0------------3-3--3---------------0-----0----------3-3---3---|


Outro:

e|---------------------------------------------------------------------------|
B|--0----------0--0--0-----0-------------------------------------------------|
G|-----2---0---0-----------0---2--0--0----0----0-----------------------------|
D|---------------------------------------------------------------------------|
A|-----------------------------3---------------------------------------------|
E|-------------0-------0-------------3--3----3-------------------------------|


e|---------------------------------------------------------------------------|
B|--0----------0--0--0-----0-------------------------------------------------|
G|-----2---0---0-----------0---2--0--0----0----0-----------------------------|
D|---------------------------------------------------------------------------|
A|-----------------------------3---------------------------------------------|
E|-------------0-------0-------------3--3----3-------------------------------|


e|-------------0--0--0-----0---0--3------------------------------------------|
B|--0----------0-----------0---1--1--0---------------------------------------|
G|-----2---0-------------------------0----0----0-----------------------------|
D|---------------------------------------------------------------------------|
A|-----------------------------3---------------------------------------------|
E|-------------0-------0-------------3--3----3-------------------------------|


e|---------------------------------------------------------------------------|
B|--0----------0--0--0-----0-------------------------------------------------|
G|-----2---0---0---------------2--0--0---------------------------------------|
D|---------------------------------------------------------------------------|
A|-----------------------------3---------------------------------------------|
E|-------------0---------------------3---------------------------------------|

************************************


| h   Hammer-on
| p   Pull-off
| /   Slide up
| \   Slide down


************************************

Other versions of Idk You Yet

Idk you yetChords
Idk you yet ukuleleChords
Idk you yetTabs

↓ Add and view comments below ↓

What do you think about this song and these tabs?

Add your comments, questions, rant or a thumbs up below.

Almost there ...

Sign in to get your own page with links to favourite songs and more. You are just one click away...

Login with Facebook Login with Google