Log in

One click and you are in

Login with Facebook Login with Google

Why sign up and log in

Guitar Tabs Explorer
Alec Benjamin bass tabs for Mind is a prison

Bass tabs

Tuning: Standard (E A D G)


Pre Chorus:

G|-----------------------------------------|
D|-------------------------------3---------|
A|-------------------3----3-5--6-----------|
E|--4---4-6--1---1-3-----------------------|

G|-----------------------------------------|
D|-----------------------------------------|
A|-------------------3----3----------------|
E|--4---4-6--1---1-3--------6--4-3---------|

Chorus:

G|-----------------------------------------|
D|-------------------------------3---------|
A|-------------------3----3-5--6-----------|
E|--4---4-6--1---1-3-----------------------|

G|-----------------------------------------|
D|-----------------------------------------|
A|-------------------3----3----------------|
E|--4---4-6--1---1-3--------6--4-3---------|


Pre Chorus 2:

G|-----------------------------------------|
D|-------------------------------3---------|
A|-------------------3----3-5--6-----------|
E|--4---4-6--1---1-3-----------------------|

G|-----------------------------------------|
D|-----------------------------------------|
A|-------------------3----3----------------|
E|--4---4-6--1---1-3--------6--4-3---------|


Chorus 2:

G|-----------------------------------------|
D|-------------------------------3---------|
A|-------------------3----3-5--6-----------|
E|--4---4-6--1---1-3-----------------------|

G|-----------------------------------------|
D|-----------------------------------------|
A|-------------------3----3----------------|
E|--4---4-6--1---1-3--------6--4-3---------|


Bridge:

G|-----------------------------------------|
D|-------------------------------3---------|
A|-------------------3----3-5--6-----------|
E|--4---4-6--1---1-3-----------------------|

G|-----------------------------------------|
D|-----------------------------------------|
A|-------------------3----3----------------|
E|--4---4-6--1---1-3--------6--4-3---------|


Chorus 3:

G|-----------------------------------------|
D|-------------------------------3---------|
A|-------------------3----3-5--6-----------|
E|--4---4-6--1---1-3-----------------------|

G|-----------------------------------------|
D|-----------------------------------------|
A|-------------------3----3----------------|
E|--4---4-6--1---1-3--------6--4-3---------|


Outro:

G|-----------------------------------------|
D|-------------------------------3---------|
A|-------------------3----3-5--6-----------|
E|--4---4-6--1---1-3-----------------------|

G|-----------------------------------------|
D|-----------------------------------------|
A|-------------------3----3----------------|
E|--4---4-6--1---1-3--------6--4-3---------|

Almost there ...

Sign in to get your own page with links to favourite songs and more. You are just one click away...

Login with Facebook Login with Google