Log in

One click and you are in

Login with Facebook Login with Google

Why sign up and log in

Guitar Tabs Explorer
Joey Albert guitar tabs for Tell me

Guitar tabs

E|--0-----------0--0-----------0--0--0--1--------------2--|
B|-----------1--------------0-----1--------1--3--------3--|
G|--------0--------------0--------2-----------------4-----|
D|-----2--------------0-----------2--------------4--------|
A|--3--------------2--------------------------2-----------|
E|--------------------------------------------------------|
  A chord diagramC majorC        A chord diagramEm7/BEm7/B        A chord diagramA minorAm              A chord diagramB minorBm
There are nights when I can't help but cry
E|--------0--------------------------0--------------|
B|--3--3-----0--1--3--1--0--------------3-----------|
G|--------------2-----------2--------------------4--|
D|--------------2-----------------3-----------5-----|
A|--------------0--------------3-----------5--------|
E|--0-----------------------1-----------3-----------|
  A chord diagramE MajorE           A chord diagramA minorAm               A chord diagramFF    A chord diagramG MajorG
 And I wonder why you have to leave me

E|--0-----------0--0-----------0--0--0--1--0-----------2--|
B|-----------1--------------0-----1-----------3--------3--|
G|--------0--------------0--------2-----------------4-----|
D|-----2--------------0-----------2--------------4--------|
A|--3--------------2--------------------------2-----------|
E|--------------------------------------------------------|
A chord diagramC majorC   A chord diagramEm7/BEm7/B  A chord diagramA minorAm             A chord diagramB minorBm
Why did it have to end so soon?


E|--------0--------------------------0--------------|
B|--3--3-----0--1--3--1--0--------------3-----------|
G|--------------2-----------2--------------------4--|
D|--------------2-----------------3-----------5-----|
A|--------------0--------------3-----------5--------|
E|--0-----------------------1-----------3-----------|
  A chord diagramE MajorE                 A chord diagramA minorAm               A chord diagramFF    A chord diagramG MajorG
 When you said that you would never leave me


Chorus:

E|--3-----------3-----------7--8--7--5--3-----------0-----|
B|-----------------------1--------------------------1-----|
G|-----------0--------0--------------------------0?"-0-----|
D|--------2--------2--------------------------2-----2-----|
A|-----2--------0-----------8--------------2--------0-----|
E|--0-----------------------------------0-----------------|

 A chord diagramE minorEm  A chord diagramAm7Am7  FM7            A chord diagramE minorEm  A chord diagramAm7Am7
Tell me, where did I go wrong


E|--7--7--8--7--5--3--10--8--0--1-----------------|
B|---------------------------------1-----1--1--3--|
G|------------------------------------2-----------|
D|------------------------------0-----------------|
A|--8---------------------------------------------|
E|-----------------0------------------------3-----|
 FM7             A chord diagramE minorEm        A chord diagramAm7Am7         A chord diagramDm7Dm7     A chord diagramG MajorG
What did I do to make you change your mind completely?


E|--3-----------3-----------7--8--7--5--3-----------0-----|
B|-----------------------1--------------------------1-----|
G|-----------0--------0--------------------------0?"-0-----|
D|--------2--------2--------------------------2-----2-----|
A|-----2--------0-----------8--------------2--------0-----|
E|--0-----------------------------------0-----------------|
     A chord diagramE minorEm  A chord diagramAm7Am7         FM7              A chord diagramE minorEm A chord diagramAm7Am7
When I thought this love would never end


E|--7--7--8--7--5--3--10--8--|
B|---------------------------|
G|---------------------------|
D|---------------------------|
A|--8------------------------|
E|-----------------0---------|
    FM7                A chord diagramE minorEm       A chord diagramAm7Am7
But if this love's not ours to have


E|--0--0--1--1--3--5--------7--8----------------8--|
B|--------1--1--------3----------------------8-----|
G|-----------------------4----------------9--------|
D|-----0------------------------------10-----------|
A|--------------------------------10---------------|
E|-----------------3-----------8-------------------|
     A chord diagramDm7Dm7             A chord diagramG MajorG        A chord diagramC majorC
I'll let it go with your goodbye

Almost there ...

Sign in to get your own page with links to favourite songs and more. You are just one click away...

Login with Facebook Login with Google