Search tabs and chords

Search for song, artist or band

Log in

One click and you are in

Login with Facebook Login with Google

Why sign up and log in

Guitar Tabs Explorer
Isaac Albeniz guitar tabs for Spanish study

Guitar tabs

Tuning: Standard (E chord diagramEE A chord diagramAA D chord diagramDD G chord diagramGG B chord diagramBB E chord diagramEE)

p - thumb
i - index
m - middle
a - ring

   p m p m p m p m p m p m

e|---0---0---0---0---0---0-|---0---0---0---0---0---0-|
B|-------------------------|-------------------------|
G|-------------------------|-------------------------|
D|-----2---3---0---2-------|-----2---3---0---2-------|
A|-0-------------------3---|-0-------------------3---|
E|-------------------------|-------------------------|
e|---0---0---0---0---0---0-|---0---0---0---0---0---0-|
B|-------------------------|-------------------------|
G|-------------------------|-------------------------|
D|-----2---3---0---2-------|-0-----------0-----------|
A|-0-------------------3---|-----2---3-------2---3---|
E|-------------------------|-------------------------|


e|---0---0---0---0---0---0-|---0---0---0---0---0---0-|
B|-------------------------|-------------------------|
G|-------------------------|-------------------------|
D|-----2---3---0---2-------|-----2---3---0---2-------|
A|-0-------------------3---|-0-------------------3---|
E|-------------------------|-------------------------|


e|---0---0---0---0---0---0-|---0---0---0---0---0---0-|
B|-------------------------|-------------------------|
G|-------------------------|-------------------------|
D|-----2---3---0---2-------|-0-----------------------|
A|-0-------------------3---|-----2---3---0-----------|
E|-------------------------|-----------------3---1---|

e|---0---0---0---0---0---0-|---0---0---0---0---0---0-|
B|-------------------------|-------------------------|
G|-------------------------|-------------------------|
D|-----2---3---0---2-------|-----2---3---0---2-------|
A|---------------------2---|---------------------2---|
E|-0-----------------------|-0-----------------------|


e|---0---0---0---0---0---0-|---0---0---0---0---0---0-|
B|-------------------------|-------------------------|
G|---------------------0---|-------------------------|
D|---------0---2---3-------|-2---3---0---2-----------|
A|-----2-------------------|-----------------3---2---|
E|-0-----------------------|-------------------------|


e|---0---0---0---0---0---0-|---0---0---0---0---0---0-|
B|-------------------------|-------------------------|
G|-------------------------|-------------------------|
D|-----2---3---0---2-------|-----2---3---0---2-------|
A|---------------------2---|---------------------2---|
E|-0-----------------------|-0-----------------------|


e|---0---0---0---0---0---0-|---0---0---0---0---0---0-|
B|-------------------------|-------------------------|
G|-----------------0-------|-------------------------|
D|-----0---2---3-------2---|-3---0---2-------0-------|
A|-------------------------|-------------3-------2---|
E|-0-----------------------|-------------------------|


   pia pia pia pia pia pia
e|---0---0---0---0---0---0-|---0---0---0---0---0---0-|
B|-------------------------|-------------------------|
G|--2---2---2---2---2---2--|--2---2---2---2---2---2--|
D|-----2---3---0---2-------|-----2---3---0---2-------|
A|-0-------------------3---|-0-------------------3---|
E|-------------------------|-------------------------|


e|---0---0---0---0---0---0-|---0---0---0---0---0---0-|
B|-------------------------|-------------------------|
G|--2---2---2---2---2---2--|--2---2---2---2---2---2--|
D|-----2---3---0---2-------|-----2---3---0---2-------|
A|-0-------------------3---|-0-------------------3---|
E|-------------------------|-------------------------|


e|---0---0---0---0---0---0-|---0---0---0---0---0---0-|
B|-------------------------|-------------------------|
G|--2---2---2---2---2---2--|--2---2---2---2---2---2--|
D|-----2---3---0---2-------|-0-----------0-----------|
A|-0-------------------3---|-----2---3-------2---3---|
E|-------------------------|-------------------------|


e|---0---0---0---0---0---0-|---0---0---0---0---0---0-|
B|-------------------------|-------------------------|
G|--2---2---2---2---2---2--|--2---2---2---2---2---2--|
D|-----2---3---0---2-------|-----2---3---0---2-------|
A|-0-------------------3---|-0-------------------3---|
E|-------------------------|-------------------------|


e|---0---0---0---0---0---0-|---0---0---0---0---0---0-|
B|-------------------------|-------------------------|
G|--2---2---2---2---2---2--|--2---2---2---2---2---2--|
D|-----2---3---0---2-------|-0-----------------------|
A|-0-------------------3---|-----2---3---0-----------|
E|-------------------------|-----------------3---1---|


e|-------------------------|-------------------------|
B|-------------------------|-------------------------|
G|-------------------------|-------------------------|
D|-------------------------|-------------------------|
A|-------------------------|-------------------------|
E|-0-----------0-----------|-------------------------|

Almost there ...

Sign in to get your own page with links to favourite songs and more. You are just one click away...

Login with Facebook Login with Google