Search tabs and chords

Search for song, artist or band

Log in

One click and you are in

Login with Facebook Login with Google

Why sign up and log in

Guitar Tabs Explorer
Isaac Albeniz guitar tabs for Leyenda asturias

Guitar tabs

Theme from "Asturias (Leyenda)" by Isaac Albeniz

All notes are 1/16 except in measure 17 where they are whole (strummed down).

Key signature:  A chord diagramG MajorG
Time signature: 3/4
Tempo:          moderato (~ 92 beats per quater note)

p m p m  ... or
p i p i                               (p = thumb, i = index, m = middle finger)
-------------------------|--------------------------|--------------------------|
--0---0----0---0---0----0|---0---0----0---0---0----0|---0---0----0---0---0----0|
-------------------------|--------------------------|--------------------------|
----9---10---7---9-------|-----9---10---7---9-------|-----9---10---7---9-------|
7--------------------10--|-7--------------------10--|-7--------------------10--|
-------------------------|--------------------------|--------------------------|
 1                        2                          3

-------------------------|--------------------------|--------------------------|
--0---0----0---0---0----0|---0---0----0---0---0----0|---0---0----0---0---0----0|
-------------------------|--------------------------|--------------------------|
7------------7-----------|-----9---10---7---9-------|-----9---10---7---9-------|
----9---10-------9---10--|-7--------------------10--|-7--------------------10--|
-------------------------|--------------------------|--------------------------|
 4                        5                          6

-------------------------|--------------------------|--------------------------|
--0---0----0---0---0----0|---0---0----0---0----0---0|---0---0----0---0---0---0-|
-------------------------|--------------------------|--------------------------|
----9---10---7---9-------|-7------------------------|-----9---10---7---9-------|
7--------------------10--|-----9---10---7-----------|----------------------9---|
-------------------------|------------------10---8--|-7------------------------|
 7                        8                          9

-------------------------|--------------------------|--------------------------|
--0---0----0---0---0---0-|---0---0---0---0----0---0-|---0----0---0---0---0---0-|
-------------------------|----------------------7---|--------------------------|
----9---10---7---9-------|-------------9---10-------|-9---10---7---9-----------|
---------------------9---|-----9---7----------------|------------------10--9---|
7------------------------|-7------------------------|--------------------------|
 10                       11                         12

-------------------------|--------------------------|-----------------------------|
--0---0----0---0---0---0-|---0---0----0---0---0---0-|---0---0----0----0---0---0---|
-------------------------|--------------------------|-------------------7---------|
----9---10---7---9-------|-----9---10---7---9-------|-----7----9---10-------9-----|
---------------------9---|----------------------9---|-----------------------------|
7------------------------|-7------------------------|-7---------------------------|
 13                       14                         15

                                  /
-------------------------|--------->---0-----------|
--0---0---0----0---0---0-|--------
-------------------------|--------->---0-----------|
10--7---9--------7-------|--------
------------10-------9---|--------->---7-----------|
-------------------------|--------
 16                       17

Almost there ...

Sign in to get your own page with links to favourite songs and more. You are just one click away...

Login with Facebook Login with Google