Log in

One click and you are in

Login with Facebook Login with Google

Why sign up and log in

Guitar Tabs Explorer
The Alan Parsons Project bass tabs for Old and wise

Bass tabs

  • Tuning: Standard tuning
  • Difficulty: Beginner
-------------------------------------------------------------------
           Artist - The Alan Parsons Project
          ***********************************
              Song - Old And Wise
              *********************
             Album - Eye in the Sky
             ************************
              Tabbed By - Ayreon77
             **********************
-------------------------------------------------------------------

Tuning = Standard

INTRO
******
G|---------------------------------------|--------------------------------------------------|
D|-7~~~-5~~~-----------------------------|-7~~~-5~~~------------------------------7~~~~~~~~-|
A|-----------8~~~~---7-8~~~~--7-5~~~~--5-|-----------8~~~~---7-8~~~~--7-5~~~~--7------------|
E|---------------------------------------|--------------------------------------------------|


------------------------------------
00:26

VERSE 1
********
G|-14~~~-12~~~---------------------------------|-14~~~-12~~~------------------------------|
D|-------------15~~~~--14-15~~~~--14-12~~~~-12-|-------------15~~~~--14-15~~~~--14-12~~~~-|
A|---------------------------------------------|------------------------------------------|
E|---------------------------------------------|------------------------------------------|

00:44
G|-----------------------------------------------------------|
D|-10~~~~~-9~~~~~-8~~~~~-7~~~~~-6~~~~~-5~~~~~---------5~~~~~-|
A|--------------------------------------------5~~-5-5--------|
E|-----------------------------------------------------------|

------------------------------------
01:01

CHORUS
*******  h      h                    p
G|-5~~~~~-7-8-------|-8-10-8~~~~-|-8-----------------8-------|-8-5-7~~~-7-7-7-------------|
D|------------8~~~~-|------------|---5~~~~--5-6~~~~----5~~~~-|-----------------5~~-5--5-5-|
A|------------------|------------|---------------------------|----------------------------|
E|------------------|------------|---------------------------|----------------------------|

01:18
G|-5~~~~------------------------------------------------------------------------|
D|-------5-8~~~~--5-6~~~~----5~~~~----------------------------------------------|
A|-------------------------8--------6-8~~~~--5-6~~~~--3-5~~~~-5~~---------------|
E|----------------------------------------------------------------5-3~~-3-3-3-3-|

01:35
G|--------------------|-------------------------------|
D|--------6-----------|-------------------------------|
A|--------------------|---3~~~----------------3~~~~~~-|
E|-4~~~-----4~~-4-4-3-|-3------6~~~-4~~~-4-4----------|


------------------------------------
01:52

VERSE 2
********
G|-14~~~-12~~~------------------------------|------------------------------------|
D|-------------15~~~~--14-15~~~~--14-12~~~~-|-7~~~-5~~~--------------------------|
A|------------------------------------------|-----------8~~~~---7-8~~~~--7-5~~~~-|
E|------------------------------------------|------------------------------------|

02:10
G|----------------------------------------------------------------------|
D|-10~~~~~-9~~~~~----8~~~~~-7~~~~~---6~~~~~-5~~~~~-5----------5~~~~-5-5-|
A|----------------10---------------8-----------------5~~~-5-5-----------|
E|----------------------------------------------------------------------|


------------------------------------
02:27

CHORUS
*******
G|-5~~~~~-5-7--------------------------------------8---------8-5-7~~~-7-7----------|
D|------------8~~~~~--8-6~~~~~----5~~~~--5-6~~~~~----5~~~~~----------------5~~-5-5-|
A|------------------------------8--------------------------------------------------|
E|---------------------------------------------------------------------------------|

02:44
G|-5~~~~~-5---------------------------------------------------------------------------------|
D|----------8~~~~~--5-6~~~~~--6---5~~~~~--5-------------------------------------------------|
A|------------------------------8-----------6-8~~~~~--5-6~~~~~--3-5~~-5-5-5-5-5-------------|
E|------------------------------------------------------------------------------3-3--3-3--3-|

03:01
G|------------------|----------------------|--------------|
D|------------6-----|----------------------|--------------|
A|------------------|---3~~~---------------|-----3~~~~~~~-|
E|-4~~~-4-4-----3~~-|-3------6~~~-4~~~-4-4-|-4-6----------|


------------------------------------
03:18

VERSE 3
********
G|---------------------------------------------|
D|-7~~~-5~~~-----------------------------------|
A|-----------8~~~~---7-8~~~~--7-5~~~~--7-------|
E|---------------------------------------5~~~~-|


------------------------------------
03:31
SAX
****
G|------------------|------------------------------5------------5~~-|
D|------6-----------|-----------------------------------------5-----|
A|------------------|---3-3--------------------3~~---3-3-3-3--------|
E|-4~~~---4-4~~~--3-|-3-----6~~-4~~~--4-4~~~-4----------------------|

03:48
G|---------------|-3-5~~-----------------|-------------------------------|
D|---------------|-----------------------|-------------------------------|
A|---------------|-----------------------|-----3~~~~~~~-3-3-3--3-3-3-3---|
E|-4~~~-4-4--4-3-|-------6~~-4~~~~-4-4~~-|-4-6-------------------------6-|

04:05
G|---------------|---------------------------------|
D|---------------|---------------------------------|
A|---------------|---3~~~-----------------3~~~~~~~-|
E|-4~~~-4-4--4-3-|-6------6~~-4~~-4-4~~-6----------|


ENJOY.............

Almost there ...

Sign in to get your own page with links to favourite songs and more. You are just one click away...

Login with Facebook Login with Google