Search tabs and chords

Search for song, artist or band

Log in

One click and you are in

Login with Facebook Login with Google

Why sign up and log in

Guitar Tabs Explorer
Alamid guitar tabs for Your love acoustic

Guitar tabs

Guitar Tutorial:  https://www.youtube.com/watch?v=jB-tFkUNwQQ


Intro::

E|-----------3-----------------0h2-----------------3--------3--]
B|--------------3-----------3-------3-----------------3-----3--]
G|-----------------0-----2-------------2--------0--------0--0--]
D|--------0-----------0----------------------2--------------2--]
A|-----2----------------------------------3-----------------3--]
E|--3----------------------------------------------------------]
G chord diagramGG-D chord diagramDD-C chord diagramCC
Verse::
     G chord diagramGG             D chord diagramDD/F# chord diagramF#F#          C chord diagramCC
E|-----------------------2--3--3--0--0--------------]
B|-----------3--0--3--3--------3-----------------3--]
G|--------------------------------------------0-----]
D|--------0--------------------------------2--------]
A|-----2-----------------------3--------3-----------]
E|--3--------------2--------------------------------]

    G chord diagramGG                    D chord diagramDD                   C chord diagramCC
E|--3--3--3--3--2--3--2--------0-----0--------]
B|--3--3--3--3--3--3--3--3--3-----1-----1-----]
G|--0-----------------------0-----0--------0--]
D|--0-----------0-----------------------------]
A|--2-----------------------3-----3-----------]
E|--3-----------------------------------------]

    G chord diagramGG            D chord diagramDD/F# chord diagramF#F#              C chord diagramCC
E|-----------------------2--3--3--0--0--------------]
B|-----------3--0--3--3--------3-----------------3--]
G|--------------------------------------------0-----]
D|--------0--------------------------------2--------]
A|-----2-----------------------3--------3-----------]
E|--3--------------2--------------------------------]

    G chord diagramGG                 D chord diagramDD            C chord diagramCC
E|--3--3--3--3--2--3--2--------0-----0--------]
B|--3--3--3--3--3--3--3--3--3-----1-----1-----]
G|--0-----------------------0-----0--------0--]
D|--0-----------0-----------------------------]
A|--2-----------------------3-----3-----------]
E|--3-----------------------------------------]

Refrain::
     Em chord diagramEmEm      D chord diagramDD              C chord diagramCC
E|-----------3--3--2--3--2--------0--------------]
B|-----------0--0--3--3--3--3--3--1-----------1--]
G|-----------0-----------------0-----------0-----]
D|--------2--------0--------------------2--------]
A|-----2-----------------------3-----3-----------]
E|--0--------------------------------------------]

   Em chord diagramEmEm              D chord diagramDD                  C chord diagramCC
E|-----------3--3--2--3--3/5--7--7--3--3--]
B|-----------0--0--3----------------5--5--]
G|-----------0----------------------------]
D|--------2--------0----------------------]
A|-----2-------------------------3--------]
E|--0-------------------------------------]

    Am7 chord diagramAm7Am7          G/B chord diagramG/BG/B             C chord diagramCC
E|---------3--------3--3--------3--3--]
B|--0h1h3-----0--3--3--3--3--3--3--3--]
G|------------------------------------]
D|------------------------------------]
A|--0------------2-----------3--------]
E|------------------------------------]

    Am7 chord diagramAm7Am7                G/B chord diagramG/BG/B                C chord diagramCC      D chord diagramDD
E|---------3--------3--3-----3--5--5------------]
B|--0h1h3-----0--3--3--3--3--3-----7--7--8--10--]
G|---------------------------------7--7--9--11--]
D|---------------------------------0------------]
A|--0------------2-----------3------------------]
E|----------------------------------------------]


Chorus::

    G chord diagramGG  D chord diagramDD           Em chord diagramEmEm
E|--3--10--8--7--5--3--]
B|--3--10-----------0--]
G|--4--11--------------]
D|--5--0------------2--]
A|--5---------------2--]
E|--3---------------0--]

       C chord diagramCC            G chord diagramGG
E|--3--10--8--7--5--3--]
B|-----8---8--------3--]
G|-----9---9--------4--]
D|---------------------]
A|---------------------]
E|-----8------------3--]

    D chord diagramDD                    Em chord diagramEmEm-C chord diagramCC
E|--3--3--------2--2--3--0--]
B|-----3--3--3-----0-----1--]
G|--------------------------]
D|-----0-----------------2--]
A|-----------------------3--]
E|-----------------0--------]

    G chord diagramGG   D chord diagramDD          Em chord diagramEmEm
E|--3--10--8--7--5--3--3--]
B|--3--10--------------0--]
G|--4--11-----------------]
D|--5--0---------------2--]
A|--5------------------2--]
E|--3------------------0--]

       C chord diagramCC            G chord diagramGG
E|--3--10--8--7--5--3--]
B|-----8---8--------3--]
G|-----9---9--------4--]
D|---------------------]
A|---------------------]
E|-----8------------3--]

    D chord diagramDD                  Em chord diagramEmEm-C chord diagramCC G chord diagramGG
E|--3--3--------2--2--3--0--3--]
B|-----3--3--3-----0-----1--3--]
G|--------------------------0--]
D|-----0-----------------2--0--]
A|-----------------------3--2--]

Other versions of Your Love Acoustic

Your loveChords
Your love acousticChords

Almost there ...

Sign in to get your own page with links to favourite songs and more. You are just one click away...

Login with Facebook Login with Google