Log in

One click and you are in

Login with Facebook Login with Google

Why sign up and log in

Guitar Tabs Explorer
Alamid guitar tabs for Hesus

Guitar tabs

hesus
artist:alamid
tabbed by: edge17_m5


note: you can used capo on 2nd fret(A chord diagramF#F#) para makuha niyo accurately yung
notes,.at  hindi kayo mahirapan sa pag play ng song,.

e|-----------4-------|----4--5-------|------------9-------------|---------2-|
B|------2-------2----|----------2----|----------10----12--10----|-------2---|
G|--------2-------2--|------------2--|--------11--------------11|-----2-----|
D|---4---------------|-3-------------|--2-----------------------|-----------|
A|-------------------|---------------|--------------------------|-----------|
E|-------------------|---------------|--------------------------|-11--------|

e|------2--|----------------------------------------------------------------|
B|-----2---|---10-9--7------------------------------------------------------|
G|----2----|-----------9--7-6--------7-6-----6------------------------------|
D|---4-----|-------------------9--7-------9----9--7---6--4------------------|
A|--5------|----mabilis tong part na to---------------------5---2-H5--2-H5P2|
E|---------|----------------------------------------------------------------

e|---------------------------|---------4-----|
B|---------------------------|--------4------|
G|---------11----------------|-------4-------|
D|--9--11-------11---9-------|------6--------|
A|-----------------------11--|---------------|
E|---------------------------|---------------|



VERSE PART
e|--------4-----------4-5-----------4-5--7----------2--|
B|----2------2-------------2----------------------2----|
G|------2------2--------------2-----------------2------|
D|--4--------------3-------------2---------------------|
A|-------------------------------------------6---------|
E|-----------------------------------------------------|

e|--------2--------2------------2--------------|
B|----2--------2-----2------2-----2------------|
G|------2--------2-----2------2-----2----------|
D|---------------------------------------------|
A|-5---------5------------4-----------4--------|
E|---------------------------------------------|

VERSE 2
e|--------2--------------4-----------2-4-5------------2--|
B|----2------2-------2------2----------------------2-----|
G|------2------2-------2-------2-----------------2-------|
D|--4--------------3---------------2---------------------|
A|-------------------------------------------6-----------|
E|-------------------------------------------------------|

e|--------2--------2------------2-----------2----|
B|----2--------2-----2------2-----2-----2-----2--|
G|------2--------2-----2------2-----2-----2-----2|
D|-----------------------------------------------|
A|-5---------5------------4-----------4----------|
E|-----------------------------------------------|


CHORUS

(plucking pattern)
e|-----------0---------------|
B|-----0---0-----0---0-------|
G|-------0---------0---------|
D|---------------------------|
A|---------------------------|
E|---0-----------------------|

A chord diagramF#F#      B/F#     A chord diagramF#F#      A chord diagramC# minorC#m A chord diagramF#F#
e|----2-------2-------2--------2--2------------|
B|----2-------4-------2--------3--2------------|
G|----3-------4-------3--------4--3------------|
D|----4-------4-------4--------4--4------------|
A|----4---------------4--------2--4------------|
E|----2-------2-------2-----------2------------|

A chord diagramBB    F#/Bb   B/G#     F#/Bb   B/G#  A chord diagramC#C#     A chord diagramF#F#
e|----7----4--------2-------4-------2------4----2---|
B|----7----7--------4-------7-------4------4----2---|
G|----8----6--------4-------6-------4------6----3---|
D|----9-------------4---------------4------6----4---|
A|----9------------------------------------4----4---|
E|----7----6--------4-------6-------4-------- --2---|
    siya ang araw,.,                siya..
                                           bawat sandali
                                           habang panahon.....

INTERLUDE
e|--------2------------2-------2---------2-----------2---------2---------4-|
B|----2-----2------2---------2---2-----2-- 2-------2-------- 2-----2----4--|
G|------2-----2------2-------------2---------2----2-----------2--2-----4---|
D|--4------------2-------------------------------4--------------------6----|
A|------------------------5----------4----------5----------4---------------|
E|-------------------------------------------------------------------------|
                                                  (keyboard)              |
e|-------------------------------7/9-7-------7--9--------------------------|
B|--7--7----7/10-9--9-10--7--7-10---------10-------------------------------|
G|---6------------9--------------------------------------------------------|
D|-------------------------------------------------------------------------|
A|-------------------------------------------------------------------------|
E|-------------------------------------------------------------------------|



VERSE3                      singit      *
e|--------2--------------2-------------4-5--------------2--|
B|----2------2-------2------2--------2-----2----------2----|
G|------2------2-------2-------2------------2------2-------|
D|--4--------------3---------------2-----------------------|
A|----------------------------------------------6----------|
E|---------------------------------------------------------|

e|--------2--------2------------2------------2---|
B|----2--------2-----2------2-----2------2-----2-|
G|------2--------2-----2------2-----2------2----2|
D|-----------------------------------------------|
A|-5---------5------------4-----------4----------|
E|-----------------------------------------------|


verse 4                        sundot   *
e|--------2--------------2-------------5-4--------------2--|
B|----2------2-------2------2--------2-----2----------2----|
G|------2------2-------2-------2------------2------2-------|
D|--4--------------3---------------2-----------------------|
A|----------------------------------------------6----------|
E|---------------------------------------------------------|

e|--------2--------2------------2------------2---|
B|----2--------2-----2------2-----2------2-----2-|
G|------2--------2-----2------2-----2------2----2|
D|-----------------------------------------------|
A|-5---------5------------4-----------4----------|
E|-----------------------------------------------|


CHORUS(do same thing)


solo

e|----------------------|----------------------|---------------------------|
B|--7--------2---5--2-2-|-7--------------------|---------------------------|
A|----6-6---4-----------|---6--6---4----6------|---------9-----------9--6--|
D|---------4------------|--------7---------4---|-----9-11--11-9--9H11------|
A|----------------------|----------------------|--12-----------------------|
E|----------------------|----------------------|---------------------------|

e|-----------------|----------------------|----7/9-7---7-9-|
B|-----------------|----10-10/9---9P7---7-|-7-------10-----|
G|-6-6-6--8-9-10-11|-11----------9----9---|----------------|
D|-----------------|----------------------|----------------|
A|-----------------|----------------------|----------------|
E|-----------------|----------------------|----------------|

e|-10-9-7-------------------|-------------9-7--6---|
B|--------10-9-7----7/10--9-|--------7-10----------|
G|----------------6---------|----7-9---------------|
D|--------------------------|--9-------------------|
A|--------------------------|----------------------|
E|--------------------------|----------------------|

REPEAT CHORUS

after ng ...sa habang panahon..
(keyboard)

actually plucking ng chords to
    F#slideF  A chord diagramEbmEbm   A chord diagramBbmBbm  A chord diagramBB   A chord diagramF#F#
e|--------------------------------|
B|--------------------------------|
G|---11/9-----8---------------11--|
D|---11/9-----8-----8----9----11--|
A|---9-/7-----6-----8----9----9---|
E|------------------6----7--------|

F#slideF  A chord diagramEbmEbm   A chord diagramBbmBbm  A chord diagramBB    C#-C#7
e|-------------------------------4---|
B|-------------------------------6---|
G|---11/9-----8---------------6--4---|
D|---11/9-----8-----8----6----6--6---|
A|---9-/7-----6-----8----6----4--4---|
E|------------------6----4-----------|
                                na tunay.........

REPEAT CHORUS
 except last line
                A chord diagramG# minorG#m (babad) A chord diagramBbmBbm   A chord diagramEbmEbm    A chord diagramG# minorG#m
e|---------------4-----------6-----6--|------------------2---|
B|---------------4-----------6-----7--|-----------------2----|
G|---------------4-----------6-----8--|----------------2-----|
D|---------------6-----------8-----8--|----------------------|
A|---------------6-----------8-----6--|----------------------|
E|---------------4-----------6--------|---6-8-9-10-11--------|
siya ay si hesus...siya ay si  hesus


OUTRO
e|--------2--------2-4-5------2---------2-----------2---------------------|
B|----2-----2---------------2---2-----2-- 2-------2----2-------------2---4|
G|------2-----2-------------------2---------2-------------2-----2--4------|
D|--4------------2-------------------------------------------4------------|
A|-----------------------5----------4----------5--------------------------|
E|------------------------------------------------------------------------|

Almost there ...

Sign in to get your own page with links to favourite songs and more. You are just one click away...

Login with Facebook Login with Google