Search tabs and chords

Search for song, artist or band

Log in

One click and you are in

Login with Facebook Login with Google

Why sign up and log in

Guitar Tabs Explorer
Alabama Shakes guitar tabs for Miss you

Guitar tabs

"I'm gonna miss you.."
Verse 1:

e|---------------|-----------------|----------------------------|
B|---------------|-----------------|----------------------------|
G|-----------7---|-----7~~----6/7~~|---7--9--11--9~~------------|
D|-7--9--11--7h9-|-7---7~~----6/7~~|-------------9~~------------|
A|---------------|---9-------------|----------------------------|
E|---------------|-----------------|----------------------------|

e|--------------------------|---------------------------|
B|--------------------------|---------------------------|
G|--------6-----------6-----|-------6-----------6-------|
D|------7---7-------7---7---|-----5---5-------5---5-----|
A|----7-------7---7-------7-|---7-------7---7-------7---|
E|--5-----------5-----------|-5-----------5-------------|

e|--------------------------|-----------------------------|
B|--------7-----------7-----|-------9------------9--------|
G|------7---7-------7---7---|-----9---9--------9---9------|
D|----7-------7---7-------7-|---9-------9----9-------9----|
A|--9-----------9-----------|-11-----------11-------------|
E|------------------------- |-----------------------------|

e|--------------------------|-----------------------------------|
B|--------------------------|-----------------------------------|
G|--------6-----------6-----|-------6-----------6---------------|
D|------7---7-------7---7---|-----5---5-------5---5-------------|
A|----7-------7---7-------7-|---7-------7---7-------7-----------|
E|--5-----------5-----------|-5-----------5---------------------|


"You could tell me, you know..."
Pre Chorus:
    D chord diagramDD           E chord diagramEE           A chord diagramAA          F# chord diagramF#F#           D chord diagramDD           E chord diagramEE
e|-------------|-------------|-------------|------------|---------------|--------------------|
B|-------------|-------------|-------------|------------|---------------|--------------------|
G|---7---------|---9---------|---9---------|---11-------|----11---------|---13---------------|
D|---7----x12--|---9----x12--|---11---x12--|---11--x12--|----13----x12--|---14-----x7--------|
A|---9---------|---11--------|---12--------|---13-------|----14---------|---14---------------|
E|-------------|-------------|-------------|------------|---------------|---12---------------|

"Maybe I'm yours, I'm yours..."
Chorus:
       A chord diagramAA                         D chord diagramDD
e|-----------------------------|-----------------------------------------|
B|-----------------------------|--7--7--7--7--7--7--7--7-----------------|
G|-----6--6--6--6--6--6--6--6--|--7--7--7--7--7--7--7--7-----------------|
D|-----7--7--7--7--7--7--7--7--|--7--7--7--7--7--7--7--7-------x2--------|
A|-----7--7--7--7--7--7--7--7--|--5--5--5--5--5--5--5--5-----------------|
E|-----5--5--5--5--5--5--5--5--|-----------------------------------------|

Verse 2:

e|---------------|-----------------|----------------------------|
B|---------------|-----------------|----------------------------|
G|-----------7---|-----7~~----6/7~~|---7--9--11--9~~------------|
D|-7--9--11--7h9-|-7---7~~----6/7~~|-------------9~~------------|
A|---------------|---9-------------|----------------------------|
E|---------------|-----------------|----------------------------|

e|--------------------------|---------------------------|
B|--------------------------|---------------------------|
G|--------6-----------6-----|-------6-----------6-------|
D|------7---7-------7---7---|-----5---5-------5---5-----|
A|----7-------7---7-------7-|---7-------7---7-------7---|
E|--5-----------5-----------|-5-----------5-------------|

e|--------------------------|-----------------------------|
B|--------7-----------7-----|-------9------------9--------|
G|------7---7-------7---7---|-----9---9--------9---9------|
D|----7-------7---7-------7-|---9-------9----9-------9----|
A|--9-----------9-----------|-11-----------11-------------|
E|------------------------- |-----------------------------|

e|--------------------------|-----------------------------------|
B|--------------------------|-----------------------------------|
G|--------6-----------6-----|-------6-----------6---------------|
D|------7---7-------7---7---|-----5---5-------5---5-------------|
A|----7-------7---7-------7-|---7-------7---7-------7-----------|
E|--5-----------5-----------|-5-----------5---------------------|


Chorus:

Solo: (variations of this)

e|----12b--------------|--------------------|----------------------------|
B|------------12b^12b--|--10h12---10h12\----|------12\-------------------|
G|---------------------|--------------------|----------------------------|
D|---------------------|--------------------|----------------------------|
A|---------------------|--------------------|----------------------------|
E|---------------------|--------------------|----------------------------|

e|---9------------------------|---------12\-----|--------------9----------|
B|-----7--8--9----9--8--7-----|-----------------|-----------9-------------|
G|----------------------------|-----------------|--------9----------------|
D|----------------------------|-----------------|-----9-------------------|
A|----------------------------|-----------------|-------------------------|
E|----------------------------|-----------------|-------------------------|
           (this build up starts coming out of the solo)
e|-----9--9--9--9--9--9--9-----------------------|
B|-----9--9--9--9--9--9--9-----------------------|
G|-----9--9--9--9--9--9--9-----------------------|
D|-----9--9--9--9--9--9--9-----------------------|
A|-----------------------------------------------|
E|-----------------------------------------------|

Verse 3:
Chorus:

Outro:

e|-----17----------------------------------|
B|------------17---------------------------|
G|-------------------16------16b^----------|
D|-----------------------------------------|
A|-----------------------------------------|
E|-----------------------------------------|




************************************

| x   Dead note
| g   Grace note
| (n) Ghost note
| h   Hammer-on
| p   Pull-off
| r   Release
| >   Accented note
| t   Tapping
| b   Bend
| br  Bend release
| pb  Pre-bend
| pbr Pre-bend release
| /   Slide up
| \   Slide down
| ~   Vibrato
| s   Slap
| P   Pop
| PM  Palm mute
| TR  Trill
| N   Tremolo

Other versions of Miss You

MissyouChords

Almost there ...

Sign in to get your own page with links to favourite songs and more. You are just one click away...

Login with Facebook Login with Google