Search tabs and chords

Search for song, artist or band

Log in

One click and you are in

Login with Facebook Login with Google

Why sign up and log in

Guitar Tabs Explorer
Alabama Shakes guitar tabs for I found you

Guitar tabs with lyrics

Tuning: Standard

"This isn't sometimes, yeah it's for always, If I'm Gonna Love you with all of my
  G chord diagramGG                      Em chord diagramEmEm                 G chord diagramGG            Em chord diagramEmEm
e|---------------------------------------------------------------------------|
B|--8--8--8--8--8--------8-8-8--8--8-8------8--8--8--8--8--8-8-8-8-8-8-------|
G|--7--7--7--7--7--------9-9-9--9--9-9------7--7--7--7--7--9-9-9-9-9-9-------|
D|--9--9--9--9--9--------9-9-9--9--9-9------9--9--9--9--9--9-9-9-9-9-9-------|
A|-10-10-10-10-10--------7-7-7--7--7-7-----10-10-10-10-10--7-7-7-7-7-7-------|
E|---------------------------------------------------------------------------|

   heart...."
     Bm chord diagramBmBm       C chord diagramCC      Bm chord diagramBmBm       C chord diagramCC
e|----7-------8-------7-------8----------------------------------------------|
B|----7-------8-------7-------8----------8--8--8--8--------------------------|
G|----7-------9-------7-------9----------9--9--9--9--------------------------|
D|----9------10-------9-------10--------10-10-10-10--------------------------|
A|----9------10-------9-------10--------10-10-10-10--------------------------|
E|----7-------8-------7-------8----------8-8---8--8--------------------------|

"Cause i remember them days......
  G chord diagramGG                                Em chord diagramEmEm
e|---------12-12-12----10-10-10----7----8--8--8---7--7--7--------------------|
B|---8-----13-13-13----12-12-12----8---10-10-10---8--8--8--------------------|
G|---7-----14-14-14----12-12-12----9----9--9--9---7--7--7--------------------|
D|---9-----------------------------9-----------------------------------------|
A|--10-----------------------------7-----------------------------------------| x2
E|---------------------------------------------------------------------------|

"And then he blessed my soul...... (a little bit of trouble with this part....)
C chord diagramCC                                  Cm chord diagramCmCm
e|-----3--3---5--5----7---7-----------8----8----8-----8----------------------|
B|-5---5--5---6--6----8---8---10---10---10---10------10----------------------|
G|-5--5--5---7--7---9---9-----10---------------------------------------------|
D|-5-------------------------------------------------------------------------|
A|-3-------------------------------------------------------5-----------------|
E|---------------------------------------------------------------------------|

"Cause I travelled a long way  And it took a long time
   G chord diagramGG                           Bm chord diagramBmBm
e|-----------------------------7-7-7-7-7-7-7-7-7-----------------------------|
B|---8--8--8--8--8--8--8--8----7-7-7-7-7-7-7-7-7-----------------------------|
G|---7--7--7--7--7--7--7--7----7-7-7-7-7-7-7-7-7-----------------------------|
D|---9--9--9--9--9--9--9--9----9-9-9-9-9-9-9-9-9-----------------------------|
A|--10-10-10-10-10-10-10-10----9-9-9-9-9-9-9-9-9-----------------------------|
E|---------------------------------------------------------------------------|

"To find you                   But I finally found you
  C chord diagramCC                            Cm chord diagramCmCm
e|--8--8--8--8--8--8--8--8------8--8--8--8--8--8--8--8------8--8--8--8--8/10-|
B|--8--8--8--8--8--8--8--8------8--8--8--8--8--8--8--8-----10-10-10-10-10/12-|
G|--9--9--9--9--9--9--9--9------8--8--8--8--8--8--8--8-----------------------|
D|-10-10-10-10-10-10-10-10-----10-10-10-10-10-10-10-10-----------------------|
A|-10-10-10-10-10-10-10-10-----10-10-10-10-10-10-10-10-----------------------|
E|---------------------------------------------------------------------------|

  G chord diagramGG              Em chord diagramEmEm        Gmaj7 chord diagramGmaj7Gmaj7
e|------------------------------------------------------------------------------|
B|--8---8--7--5--/7--5-----3----8---7--5--/7--3---------------------------------|
G|--7----------------------4----------------------------------------------------|
D|--9---9--7--5--/7--5-----4----9---7--5--/7--4---------------------------------|
A|-10---------------------------------------------------------------------------|
E|------------------------------------------------------------------------------|

"I remember all them lonely days......
  G chord diagramGG                      Em chord diagramEmEm                 G chord diagramGG            Em chord diagramEmEm
e|---------------------------------------------------------------------------|
B|--8--8--8--8--8--------8-8-8--8--8-8------8--8--8--8--8--8-8-8-8-8-8-------|
G|--7--7--7--7--7--------9-9-9--9--9-9------7--7--7--7--7--9-9-9-9-9-9-------|
D|--9--9--9--9--9--------9-9-9--9--9-9------9--9--9--9--9--9-9-9-9-9-9-------|
A|-10-10-10-10-10--------7-7-7--7--7-7-----10-10-10-10-10--7-7-7-7-7-7-------|
E|---------------------------------------------------------------------------|

"But if it's not the real deal"
     Bm chord diagramBmBm       C chord diagramCC      Bm chord diagramBmBm       C chord diagramCC
e|----7-------8-------7-------8----------------------------------------------|
B|----7-------8-------7-------8----------8--8--8--8--8-----------------------|
G|----7-------9-------7-------9----------9--9--9--9--9-----------------------|
D|----9------10-------9-------10--------10-10-10-10-10-----------------------|
A|----9------10-------9-------10--------10-10-10-10-10-----------------------|
E|----7-------8-------7-------8----------8-8---8--8--8-----------------------|

I remember all them days I waited so patiently....
 G chord diagramGG                                Em chord diagramEmEm
e|---------12-12-12----10-10-10----7----8--8--8---7--7--7--------------------|
B|---8-----13-13-13----12-12-12----8---10-10-10---8--8--8--------------------|
G|---7-----14-14-14----12-12-12----9----9--9--9---7--7--7--------------------|
D|---9-----------------------------9-----------------------------------------|
A|--10-----------------------------7-----------------------------------------| x2
E|---------------------------------------------------------------------------|

C chord diagramCC                                  Cm chord diagramCmCm
e|-----3--3---5--5----7---7-----------8----8----8-----8----------------------|
B|-5---5--5---6--6----8---8---10---10---10---10------10----------------------|
G|-5--5--5---7--7---9---9-----10---------------------------------------------|
D|-5-------------------------------------------------------------------------|
A|-3-------------------------------------------------------5-----------------|
E|---------------------------------------------------------------------------|

"Cause I travelled a long way  And it took a long time
   G chord diagramGG                           Bm chord diagramBmBm
e|-----------------------------7-7-7-7-7-7-7-7-7-----------------------------|
B|---8--8--8--8--8--8--8--8----7-7-7-7-7-7-7-7-7-----------------------------|
G|---7--7--7--7--7--7--7--7----7-7-7-7-7-7-7-7-7-----------------------------|
D|---9--9--9--9--9--9--9--9----9-9-9-9-9-9-9-9-9-----------------------------|
A|--10-10-10-10-10-10-10-10----9-9-9-9-9-9-9-9-9-----------------------------|
E|---------------------------------------------------------------------------|

"To find you                   But I finally found you
  C chord diagramCC                            Cm chord diagramCmCm
e|--8--8--8--8--8--8--8--8------8--8--8--8--8--8--8--8------8--8--8--8--8/10-|
B|--8--8--8--8--8--8-10-10------8--8--8--8--8--8--8--8-----10-10-10-10-10/12-|
G|--9--9--9--9--9--9--9--9------8--8--8--8--8--8--8--8-----------------------|
D|-10-10-10-10-10-10-10-10-----10-10-10-10-10-10-10-10-----------------------|
A|-10-10-10-10-10-10-10-10-----10-10-10-10-10-10-10-10-----------------------|
E|---------------------------------------------------------------------------|

Repeat the chorus again, then

@2:21
   G chord diagramGG                           Em chord diagramEmEm
e|-----------------------------7-7-7-7-7-7-7-7-7-----------------------------|
B|---8--8--8--8--8--8--8--8----8-8-8-8-8-8-8-8-8-----------------------------|
G|---7--7--7--7--7--7--7--7----9-9-9-9-9-9-9-9-9-----------------------------|
D|---9--9--9--9--9--9--9--9----9-9-9-9-9-9-9-9-9-----------------------------|
A|--10-10-10-10-10-10-10-10----7-7-7-7-7-7-7-7-7-----------------------------|
E|---------------------------------------------------------------------------|

"To find you                   But I finally found you
  C chord diagramCC                            Cm chord diagramCmCm
e|--8--8--8--8--8--8--8--8------8--8--8--8--8--8--8--8------8--8--8--8--8/10-|
B|--8--8--8--8--8--8-10-10------8--8--8--8--8--8--8--8-----10-10-10-10-10/12-|
G|--9--9--9--9--9--9--9--9------8--8--8--8--8--8--8--8-----------------------|
D|-10-10-10-10-10-10-10-10-----10-10-10-10-10-10-10-10-----------------------|
A|-10-10-10-10-10-10-10-10-----10-10-10-10-10-10-10-10-----------------------|
E|---------------------------------------------------------------------------|
************************************

| /   slide up
| \   slide down
| h   hammer-on
| p   pull-off
| ~   vibrato
| +   harmonic
| x   Mute note
| b   Bend
| pb  Pre-bend
| br  Bend release
| pbr Pre-bend release
| brb Bend release bend

Other versions of I Found You

I found youChords

Almost there ...

Sign in to get your own page with links to favourite songs and more. You are just one click away...

Login with Facebook Login with Google