Search tabs and chords

Search for song, artist or band

Log in

One click and you are in

Login with Facebook Login with Google

Why sign up and log in

Guitar Tabs Explorer
Alabama Shakes guitar tabs for Future people

Guitar tabs with lyrics

-------------------------------------------------------------------------------
                             Future People - Alabama Shakes
-------------------------------------------------------------------------------
Tabbed by: Alex M.
Official Audio:
https://www.youtube.com/watch?v=iraraKH0_Tk

Guitar 1 - Clean
Guitar 2 - Clean
Bass

No Capo
4/4 Bpm ~ 78

Have fun with this wicked sweet rhythm.

Guitar 1
--------

Intro:
e|---------------------------------|---------------------------------|
B|---------------------------------|---------------------------------|
G|--------------------(4)-------(4)|---------6---4---------4---------|
D|-----2-4-------2-4---4-------2-4-|---------4---4-------2-4-------2-|
A|-0-4-------0-4-----------0-4-----|---0-4-0---------0-4-------0-4---|
E|---------------------------------|---------------------------------|
   1 e & a 2 e & a 3 e & a 4 e & a   1 e & a 2 e & a 3 e & a 4 e & a

e|---------------------------------|---------------------------------|
B|---------------------------------|---------------------------------|
G|-------4---------4---4---------4-|---------6---4-------------------|
D|-----2-4-------2-4---4-------2-4-|---------4---4-------2-4-------2-|
A|-0-4-------0-4-----------0-4-----|(0)0-4-0---------0-4-----0-0-4---|
E|---------------------------------|---------------------------------|
   1 e & a 2 e & a 3 e & a 4 e & a   1 e & a 2 e & a 3 e & a 4 e & a

e|---------------------------------|---------------------------------|
B|---------------------------------|---------------------------------|
G|-------4---------4---4-----6---4-|-----------------4h6-----4-------|
D|-----2-4-------2-4---4--/7--\4---|-----2-4---2-4---4---4-7---7-4-0-|
A|-0-4-------0-4-------------------|-0-4-----------------------------|
E|---------------------------------|---------------------------------|
   1 e & a 2 e & a 3 e & a 4 e & a   1 e & a 2 e & a 3 e & a 4 e & a

e|---------------------------------|---------------------------------|
B|---------------------------------|---------------------------------|
G|-----2-4(4)----2-4---4--/6---4---|-----2-4-------2-4-4h7-4---4-----|
D|-0-4-------0-4----------/4---4---|-0-4-------0-4-----4-----4---7-4-|
A|---------------------------------|---------------------------------|
E|---------------------------------|---------------------------------|
   1 e & a 2 e & a 3 e & a 4 e & a   1 e & a 2 e & a 3 e & a 4 e & a

e|---------------------------------|---------------------------------|
B|---------------------------------|---------------------------------|
G|-------------------------6---4---|-----------------4-------2----(2)|
D|-----2-4-------2-4---4---4---4---|-----2-4-------2-4---------------|
A|-0-4-------0-4-------------------|-0-4-------0-4-------4-----------|
E|---------------------------------|---------------------------------|
   1 e & a 2 e & a 3 e & a 4 e & a   1 e & a 2 e & a 3 e & a 4 e & a

Verse 1:

e|-----0-2-------0-2---2---2---0-2-|-----0-2-------0-2---2---2-5-2---|
B|---2---------2-------------2-----|---2---------2-------------------|
G|-2---------2---------------------|-2---------2---------------------|
D|---------------------------------|---------------------------------|
A|---------------------------------|---------------------------------|
E|---------------------------------|---------------------------------|
   1 e & a 2 e & a 3 e & a 4 e & a   1 e & a 2 e & a 3 e & a 4 e & a
   Some            want    to  see
e|-----0-2-------0-2---2---0---0---|-----0-2-------0-2-5-2-----2-----|
B|---2---------2-------------2---2-|---2---------2-------------------|
G|-2---------2---------------------|-2---------2---------------------|
D|---------------------------------|---------------------------------|
A|---------------------------------|---------------------------------|
E|---------------------------------|---------------------------------|
   1 e & a 2 e & a 3 e & a 4 e & a   1 e & a 2 e & a 3 e & a 4 e & a
   Those       who've gone above
e|-----5-7-------5-7---7---5---5-7-|-----5-7-------5-7---7---5-7-5---|
B|---7---------7-------------7-----|---7---------7---------7-------7-|
G|-4---------4---------------------|-4---------4---------------------|
D|---------------------------------|---------------------------------|
A|---------------------------------|---------------------------------|
E|---------------------------------|---------------------------------|
   1 e & a 2 e & a 3 e & a 4 e & a   1 e & a 2 e & a 3 e & a 4 e & a
   Friends         that    they lost
e|-----0-2-------0-2---2---2---0-2-|-----0-2-------0-2---2---2-5-2---|
B|---2---------2-------------2-----|---2---------2-------------------|
G|-2---------2---------------------|-2---------2---------------------|
D|---------------------------------|---------------------------------|
A|---------------------------------|---------------------------------|
E|---------------------------------|---------------------------------|
   1 e & a 2 e & a 3 e & a 4 e & a   1 e & a 2 e & a 3 e & a 4 e & a
   People                  they love
e|-----0-2-------0-2---2---2---0-2-|-----0-2-------0-2---2---2-5-2---|
B|---2---------2-------------2-----|---2---------2-------------------|
G|-2---------2---------------------|-2---------2---------------------|
D|---------------------------------|---------------------------------|
A|---------------------------------|---------------------------------|
E|---------------------------------|---------------------------------|
   1 e & a 2 e & a 3 e & a 4 e & a   1 e & a 2 e & a 3 e & a 4 e & a
   I'd             rather      meet
e|-----0-2-------0-2---2---2---0-2-|-----0-2-------0-2---2---0-2-----|
B|---2---------2-------------2-----|---2---------2-------------------|
G|-2---------2---------------------|-2---------2---------------------|
D|---------------------------------|---------------------------------|
A|---------------------------------|---------------------------------|
E|---------------------------------|---------------------------------|
   1 e & a 2 e & a 3 e & a 4 e & a   1 e & a 2 e & a 3 e & a 4 e & a
   Freedom                 than roam
e|-----5-7-------5-7---7---5---5-7-|-----5-7-------5-7-107---5-7-5---|
B|---7---------7-------------7-----|---7---------7---------7-------7-|
G|-4---------4---------------------|-4---------4---------------------|
D|---------------------------------|---------------------------------|
A|---------------------------------|---------------------------------|
E|---------------------------------|---------------------------------|
   1 e & a 2 e & a 3 e & a 4 e & a   1 e & a 2 e & a 3 e & a 4 e & a
To lead            me through the fog
e|-----0-2-------0-2---2---2---0-2-|-----0-2-------0-2---------------|
B|---2---------2-------------2-----|---2---------2-------------------|
G|-2---------2---------------------|-2---------2---------4h6p4-------|
D|---------------------------------|---------------------4-----7-4---|
A|---------------------------------|---------------------------------|
E|---------------------------------|---------------------------------|
   1 e & a 2 e & a 3 e & a 4 e & a   1 e & a 2 e & a 3 e & a 4 e & a
   Couldn't        ask     for more

Chorus:

e|---------------------------------|---------------------------------|
B|---------------------------------|---------------------------------|
G|-------------------------6---4---|-------------------------6-6-4-4-|
D|-----2-4-------2-4---4---4---4---|-----2-4-------2-4---4-----------|
A|-0-4-------0-4-------------------|-0-4-------0-4-------------------|
E|---------------------------------|---------------------------------|
   1 e & a 2 e & a 3 e & a 4 e & a   1 e & a 2 e & a 3 e & a 4 e & a
                           Children                          Take a living
e|---------------------------------|---------------------------------|
B|---------------------------------|---------------------------------|
G|-------------------------6---6---|-----------------6-6-4-4---------|
D|-----2-4-------2-4---4---4---4---|-----2-4-------2---------7-7-4-4-|
A|-0-4-------0-4-------------------|-0-4-------0-4-------------------|
E|---------------------------------|---------------------------------|
   1 e & a 2 e & a 3 e & a 4 e & a   1 e & a 2 e & a 3 e & a 4 e & a
                       Gotta keep up           You got to give a little, get a little
e|---------------------------------|---------------------------------|
B|---------------------------------|---------------------------------|
G|-----2-4-------2-4---4---6---4---|-----2-4-4-------4h6p4-----------|
D|-0-4-------0-4-------------------|-0-4---------------------4h7p4---|
A|---------------------------------|---------------------------------|
E|---------------------------------|---------------------------------|
   1 e & a 2 e & a 3 e & a 4 e & a   1 e & a 2 e & a 3 e & a 4 e & a
                       And see it                        Like future
e|---------------------------------|---------------------------------|
B|---------------------------------|---------------------------------|
G|-------------------------2-------|---------------------------------|
D|-----2-4-------2-4---4---4---4---|-----2-4-------2-4---4---4\------|
A|-0-4-------0-4-------------------|-0-4-------0-4-------------------|
E|---------------------------------|---------------------------------|
   1 e & a 2 e & a 3 e & a 4 e & a   1 e & a 2 e & a 3 e & a 4 e & a
                           people
Post-Chorus:

e|---------------------------------|---------------------------------|
B|---------------------------------|---------------------------------|
G|-1/2---------1/2-----------------|-1/2---------1/2-----------------|
D|-2/4---------2/4-----------------|-2/4---------2/4-----------------|
A|-2/4---------2/4-----------------|-2/4---------2/4-----------------|
E|-0/2---------0/2-----------------|-0/2---------0/2-----------------|
   1 e & a 2 e & a 3 e & a 4 e & a   1 e & a 2 e & a 3 e & a 4 e & a

e|---------------------------------|---------------------------------|
B|---------------------------------|---------------------------------|
G|-1/2---------1/2-----------------|-1/2---------1/2-----------------|
D|-2/4---------2/4-----------------|-2/4---------2/4-----------------|
A|-2/4---------2/4-----------------|-2/4---------2/4-----------------|
E|-0/2---------0/2-----------------|-0/2---------0/2-----------------|
   1 e & a 2 e & a 3 e & a 4 e & a   1 e & a 2 e & a 3 e & a 4 e & a
Verse 2:

e|-----0-2-------0-2---2---2---0-2-|-----0-2-------0-2---2---2-5-2---|
B|---2---------2-------------2-----|---2---------2-------------------|
G|-2---------2---------------------|-2---------2---------------------|
D|---------------------------------|---------------------------------|
A|---------------------------------|---------------------------------|
E|---------------------------------|---------------------------------|
   1 e & a 2 e & a 3 e & a 4 e & a   1 e & a 2 e & a 3 e & a 4 e & a
   Some            things  could be
e|-----0-2-------0-2---2---2---0-2-|-----0-2-------0-2---2-----2-----|
B|---2---------2-------------2-----|---2---------2-------------------|
G|-2---------2---------------------|-2---------2---------------------|
D|---------------------------------|---------------------------------|
A|---------------------------------|---------------------------------|
E|---------------------------------|---------------------------------|
   1 e & a 2 e & a 3 e & a 4 e & a   1 e & a 2 e & a 3 e & a 4 e & a
   Seen            from    above
e|-----5-7-------5-7---7---5---5-7-|-----5-7-------5-7-107---5-7-5---|
B|---7---------7-------------7-----|---7---------7---------7-------7-|
G|-4---------4---------------------|-4---------4---------------------|
D|---------------------------------|---------------------------------|
A|---------------------------------|---------------------------------|
E|---------------------------------|---------------------------------|
   1 e & a 2 e & a 3 e & a 4 e & a   1 e & a 2 e & a 3 e & a 4 e & a
   Thread          of      design
e|-----0-2-------0-2---2---2---0-2-|-----0-2-------0-2-5-2-----2-----|
B|---2---------2-------------2-----|---2---------2-------------------|
G|-2---------2---------------------|-2---------2---------------------|
D|---------------------------------|---------------------------------|
A|---------------------------------|---------------------------------|
E|---------------------------------|---------------------------------|
   1 e & a 2 e & a 3 e & a 4 e & a   1 e & a 2 e & a 3 e & a 4 e & a
   Don't           trip    me up

Chorus 2:

e|---------------------------------|---------------------------------|
B|---------------------------------|---------------------------------|
G|-------------------------6---4---|-------------------------6-6-4-4-|
D|-----2-4-------2-4---4---4---4---|-----2-4-------2-4---4-----------|
A|-0-4-------0-4-------------------|-0-4-------0-4-------------------|
E|---------------------------------|---------------------------------|
   1 e & a 2 e & a 3 e & a 4 e & a   1 e & a 2 e & a 3 e & a 4 e & a
                           Children                          Take a living
e|---------------------------------|---------------------------------|
B|---------------------------------|---------------------------------|
G|-------------------------6---6---|-----------------6-6-4-4---------|
D|-----2-4-------2-4---4---4---4---|-----2-4-------2---------7-7-4-4-|
A|-0-4-------0-4-------------------|-0-4-------0-4-------------------|
E|---------------------------------|---------------------------------|
   1 e & a 2 e & a 3 e & a 4 e & a   1 e & a 2 e & a 3 e & a 4 e & a
                       Gotta keep up           You got to give a little, get a little
e|---------------------------------|---------------------------------|
B|---------------------------------|---------------------------------|
G|-----2-4-------2-4---4---6---4---|-----2-4-4-------4h6p4-----------|
D|-0-4-------0-4-------------------|-0-4---------------------4h7p4---|
A|---------------------------------|---------------------------------|
E|---------------------------------|---------------------------------|
   1 e & a 2 e & a 3 e & a 4 e & a   1 e & a 2 e & a 3 e & a 4 e & a
                       And see it                        Like future
e|---------------------------------|---------------------------------|
B|---------------------------------|---------------------------------|
G|-------------------------2-------|---------------------------------|
D|-----2-4-------2-4---4---4---4---|-----2-4-------2-4---4---4\------|
A|-0-4-------0-4-------------------|-0-4-------0-4-------------------|
E|---------------------------------|---------------------------------|
   1 e & a 2 e & a 3 e & a 4 e & a   1 e & a 2 e & a 3 e & a 4 e & a
                           people

Post-Chorus:
                                     (v this bass note is a bit tricky to play; you could leave it out)
e|---------------------------------|---------------------------------|
B|---------------------------------|---------------------------------|
G|-1/2---------1/2-----------------|-4/6---------4/6-----------------|
D|-2/4---------2/4-----------------|-2/4---------2/4-----------------|
A|-2/4---------2/4-----------------|-2/4---------2/4-----------------|
E|-0/2---------0/2-----------------|-0/2---------0/2-----------------|
   1 e & a 2 e & a 3 e & a 4 e & a   1 e & a 2 e & a 3 e & a 4 e & a
                                                             Listen to teachers
e|---------------------------------|---------------------------------|
B|---------------------------------|---------------------------------|
G|-4/6---------4/6-----------------|-7\4---------7\4-----------------|
D|-2/4---------2/4-----------------|-7\4---------7\4-----------------|
A|-2/4---------2/4-----------------|-5\2---------5\2-----------------|
E|-0/2---------0/2-----------------|---------------------------------|
   1 e & a 2 e & a 3 e & a 4 e & a   1 e & a 2 e & a 3 e & a 4 e & a
                           Imagine a sound                   Listen loud
e|---------------------------------|---------------------------------|
B|---------------------------------|---------------------------------|
G|-7\4---------7\4-----------------|---------------------------------|
D|-7\4---------7\4-----------------|-6/7---------6/7-----------------|
A|-5\2---------5\2-----------------|-6/7---------6/7-----------------|
E|---------------------------------|-4/5---------4/5-----------------|
   1 e & a 2 e & a 3 e & a 4 e & a   1 e & a 2 e & a 3 e & a 4 e & a
                   And then they'll reach the top
e|---------------------------------|---------------------------------||
B|---------------------------------|---------------------------------||
G|---------------------------------|---------------------------------||
D|-6/7---------6/7-----------------|-6/7---------6/7-----------------||
A|-6/7---------6/7-----------------|-6/7---------6/7-----------------||
E|-4/5---------4/5-----------------|-4/5---------4/5-----------------||
   1 e & a 2 e & a 3 e & a 4 e & a   1 e & a 2 e & a 3 e & a 4 e & a


Guitar 2 (The measures are spaced out so the high notes are more easily readable)
--------

Intro:

2 Measures of rest

e|-------------14-14-------------------17-17-14-14-|-------------14-14-------------------------12-12-|
B|-------------14-14-------------------19-19-14-14-|-------------14-14-------------------------14-14-|
G|-------------14-14-------------------18-18-14-14-|-------------14-14-------------------------14-14-|
D|-------------------------------------------------|-------------------------------------------------|
A|-------------------------------------------------|-------------------------------------------------|
E|-------------------------------------------------|-------------------------------------------------|
   1  e  &  a  2  e  &  a  3  e  &  a  4  e  &  a    1  e  &  a  2  e  &  a  3  e  &  a  4  e  &  a

e|-------------14-14-------------------17----21----|-------------14-14-------14-17-14-------14-------|
B|-------------14-14-------------------------------|-------------14-14-------14-------14-17----14----|
G|-------------14-14-------------------------------|-------------14-14-------14-------------------14-|
D|-------------------------------------------------|-------------------------------------------------|
A|-------------------------------------------------|-------------------------------------------------|
E|-------------------------------------------------|-------------------------------------------------|
   1  e  &  a  2  e  &  a  3  e  &  a  4  e  &  a    1  e  &  a  2  e  &  a  3  e  &  a  4  e  &  a

e|-------------9--9--------------------9-----7-----|-------------14-14-------14-17-14-------14-------|
B|-------------7--7--------------------7-----7-----|-------------14-14-------14-------14-17----14----|
G|-------------7--7--------------------7-----7-----|-------------14-14-------14-------------------14-|
D|-------------------------------------------------|-------------------------------------------------|
A|-------------------------------------------------|-------------------------------------------------|
E|-------------------------------------------------|-------------------------------------------------|
   1  e  &  a  2  e  &  a  3  e  &  a  4  e  &  a    1  e  &  a  2  e  &  a  3  e  &  a  4  e  &  a
e|-------------14-14-------------------14----12----|-------------14-14-------------------------------|
B|-------------14-14-------------------14----14----|-------------14-14-------------------------------|
G|-------------14-14-------------------14----14----|-------------14-14-------------------------------|
D|-------------------------------------------------|-------------------------------------------------|
A|-------------------------------------------------|-------------------------------------------------|
E|-------------------------------------------------|-------------------------------------------------|
   1  e  &  a  2  e  &  a  3  e  &  a  4  e  &  a    1  e  &  a  2  e  &  a  3  e  &  a  4  e  &  a

Rest through Verse 1.

Chorus:

e|-------------14-14-------------------17-17-14-14-|-------------14-14-------------------------12-12-|
B|-------------14-14-------------------19-19-14-14-|-------------14-14-------------------14-14-14-14-|
G|-------------14-14-------------------18-18-14-14-|-------------14-14-------------------14-14-14-14-|
D|-------------------------------------------------|-------------------------------------------------|
A|-------------------------------------------------|-------------------------------------------------|
E|-------------------------------------------------|-------------------------------------------------|
   1  e  &  a  2  e  &  a  3  e  &  a  4  e  &  a    1  e  &  a  2  e  &  a  3  e  &  a  4  e  &  a
                                       Children                                          Take a living
e|-------------14-14-------------------17----21----|-------------14-14-------14-17-14-------14-------|
B|-------------14-14-------------------------------|-------------14-14-------14-------14-17----14----|
G|-------------14-14-------------------------------|-------------14-14-------14-------------------14-|
D|-------------------------------------------------|-------------------------------------------------|
A|-------------------------------------------------|-------------------------------------------------|
E|-------------------------------------------------|-------------------------------------------------|
   1  e  &  a  2  e  &  a  3  e  &  a  4  e  &  a    1  e  &  a  2  e  &  a  3  e  &  a  4  e  &  a
                                 Gotta keep  up                     You got to give a little, get a little
e|-------------9--9--------------------9-----7-----|-------------14-14-------14-17-14-------14-------|
B|-------------7--7--------------------7-----7-----|-------------14-14-------14-------14-17----14----|
G|-------------7--7--------------------7-----7-----|-------------14-14-------14-------------------14-|
D|-------------------------------------------------|-------------------------------------------------|
A|-------------------------------------------------|-------------------------------------------------|
E|-------------------------------------------------|-------------------------------------------------|
   1  e  &  a  2  e  &  a  3  e  &  a  4  e  &  a    1  e  &  a  2  e  &  a  3  e  &  a  4  e  &  a
                                 And   see   it                              Like future
e|-------------14-14-------------------14----12----|-------------14-14-------------------------------|
B|-------------14-14-------------------14----14----|-------------14-14-------------------------------|
G|-------------14-14-------------------14----14----|-------------14-14-------------------------------|
D|-------------------------------------------------|-------------------------------------------------|
A|-------------------------------------------------|-------------------------------------------------|
E|-------------------------------------------------|-------------------------------------------------|
   1  e  &  a  2  e  &  a  3  e  &  a  4  e  &  a    1  e  &  a  2  e  &  a  3  e  &  a  4  e  &  a
                                        people

Rest through Post-Chorus and Verse 2.


- Chorus 2 (Repeat chorus) -


Final Post-Chorus:

Rest 5 measures...

e|-17-17-17-17-17-17-17-17-17-17-17-17-17-17-17-17-|-17-17-17-17-17-17-17-17-17-17-17-17-17-17-17-17-|
B|-14-14-14-14-14-14-14-14-14-14-14-14-14-14-14-14-|-14-14-14-14-14-14-14-14-14-14-14-14-14-14-14-14-|
G|-14-14-14-14-14-14-14-14-14-14-14-14-14-14-14-14-|-14-14-14-14-14-14-14-14-14-14-14-14-14-14-14-14-|
D|-------------------------------------------------|-------------------------------------------------|
A|-------------------------------------------------|-------------------------------------------------|
E|-------------------------------------------------|-------------------------------------------------|
   1  e  &  a  2  e  &  a  3  e  &  a  4  e  &  a    1  e  &  a  2  e  &  a  3  e  &  a  4  e  &  a

e|-17-17-17-17-17-17-17-17-17-17-17-17-17-17-17-17-||
B|-14-14-14-14-14-14-14-14-14-14-14-14-14-14-14-14-||
G|-14-14-14-14-14-14-14-14-14-14-14-14-14-14-14-14-||
D|-------------------------------------------------||
A|-------------------------------------------------||
E|-------------------------------------------------||
   1  e  &  a  2  e  &  a  3  e  &  a  4  e  &  a



Bass
----

Rest through intro.

Verse 1:

G|---------|---------|---------|---------|---------|---------|---------|---------|
D|---------|---------|---------|---------|---------|---------|---------|---------|
A|---------|---------|---------|---------|-2-------|---------|---------|---------|
E|-2-------|---------|-2-------|---------|---------|---------|-2-------|---------|
   1 2 3 4   1 2 3 4   1 2 3 4   1 2 3 4   1 2 3 4   1 2 3 4   1 2 3 4   1 2 3 4

G|---------|---------|---------|---------|---------|---------|---------|---------|
D|---------|---------|---------|---------|---------|---------|---------|---------|
A|---------|---------|---------|---------|-2-------|---------|---------|---------|
E|-2-------|---------|-2-------|---------|---------|---------|-2-------|---------|
   1 2 3 4   1 2 3 4   1 2 3 4   1 2 3 4   1 2 3 4   1 2 3 4   1 2 3 4   1 2 3 4


Chorus:

G|---------------------------------|---------------------------------|
D|---------------------------------|---------------------------------|
A|-0-----------0-0-----------------|-0-----------0-0-----------------|
E|---------------------------------|---------------------------------|
   1 e & a 2 e & a 3 e & a 4 e & a   1 e & a 2 e & a 3 e & a 4 e & a

G|---------------------------------|---------------------------------|
D|---------------------------------|---------------------------------|
A|-0-----------0-0-----------------|-0-----------0-0-----------------|
E|---------------------------------|---------------------------------|
   1 e & a 2 e & a 3 e & a 4 e & a   1 e & a 2 e & a 3 e & a 4 e & a

G|---------------------------------|---------------------------------|
D|-0-----------0-0-----------------|-0-----------0-0-----------------|
A|---------------------------------|---------------------------------|
E|---------------------------------|---------------------------------|
   1 e & a 2 e & a 3 e & a 4 e & a   1 e & a 2 e & a 3 e & a 4 e & a

G|---------------------------------|---------------------------------|
D|---------------------------------|---------------------------------|
A|-0-----------0-0-----------------|-0-----------0-0-----------------|
E|---------------------------------|---------------------------------|
   1 e & a 2 e & a 3 e & a 4 e & a   1 e & a 2 e & a 3 e & a 4 e & a

Post-Chorus:

G|---------------------------------|---------------------------------|
D|---------------------------------|---------------------------------|
A|---------------------------------|---------------------------------|
E|-0h2---------0h2-----------------|-0h2---------0h2-----------------|
   1 e & a 2 e & a 3 e & a 4 e & a   1 e & a 2 e & a 3 e & a 4 e & a

G|---------------------------------|---------------------------------|
D|---------------------------------|---------------------------------|
A|---------------------------------|---------------------------------|
E|-0h2---------0h2-----------------|-0h2---------0h2-----------------|
   1 e & a 2 e & a 3 e & a 4 e & a   1 e & a 2 e & a 3 e & a 4 e & a

Verse 2:

Rest 2 measures.

G|---------------------------------|---------------------------------|
D|-4-------------------------------|---------------------------------|
A|---------------------------------|-------------------------0---1---|
E|---------------------------------|-2-------------------2-----------|
   1 e & a 2 e & a 3 e & a 4 e & a   1 e & a 2 e & a 3 e & a 4 e & a

G|---------------------------------|---------------------------------|
D|---------------------------------|---------------------------------|
A|-2-------------------------------|---------------------------------|
E|---------------------------------|---------------------------------|
   1 e & a 2 e & a 3 e & a 4 e & a   1 e & a 2 e & a 3 e & a 4 e & a

G|---------------------------------|---------------------------------|
D|---------------------------------|---------------------------------|
A|---------------------------------|---------------------------------|
E|-2-------------------------------|---------------------------------|
   1 e & a 2 e & a 3 e & a 4 e & a   1 e & a 2 e & a 3 e & a 4 e & a


Chorus:

G|---------------------------------|---------------------------------|
D|---------------------------------|---------------------------------|
A|-0-----------0-0-----------------|-0-----------0-0-----------------|
E|---------------------------------|---------------------------------|
   1 e & a 2 e & a 3 e & a 4 e & a   1 e & a 2 e & a 3 e & a 4 e & a

G|---------------------------------|---------------------------------|
D|---------------------------------|---------------------------------|
A|-0-----------0-0-----------------|-0-----------0-0-----------------|
E|---------------------------------|---------------------------------|
   1 e & a 2 e & a 3 e & a 4 e & a   1 e & a 2 e & a 3 e & a 4 e & a

G|---------------------------------|---------------------------------|
D|-0-----------0-0-----------------|-0-----------0-0-----------------|
A|---------------------------------|---------------------------------|
E|---------------------------------|---------------------------------|
   1 e & a 2 e & a 3 e & a 4 e & a   1 e & a 2 e & a 3 e & a 4 e & a

G|---------------------------------|---------------------------------|
D|---------------------------------|---------------------------------|
A|-0-----------0-0-----------------|-0-----------0-0-----------------|
E|---------------------------------|---------------------------------|
   1 e & a 2 e & a 3 e & a 4 e & a   1 e & a 2 e & a 3 e & a 4 e & a

Post-Chorus:

G|---------------------------------|---------------------------------|
D|---------------------------------|---------------------------------|
A|---------------------------------|---------------------------------|
E|-0h2---------0h2-----------------|-0h2---------0h2-----------------|
   1 e & a 2 e & a 3 e & a 4 e & a   1 e & a 2 e & a 3 e & a 4 e & a

G|---------------------------------|---------------------------------|
D|---------------------------------|---------------------------------|
A|---------------------------------|-5p2---------5p2-----------------|
E|-0h2---------0h2-----------------|---------------------------------|
   1 e & a 2 e & a 3 e & a 4 e & a   1 e & a 2 e & a 3 e & a 4 e & a

G|---------------------------------|---------------------------------|
D|---------------------------------|---------------------------------|
A|-5p2---------5p2-----------------|---------------------------------|
E|---------------------------------|-0h2---------0h2-----------------|
   1 e & a 2 e & a 3 e & a 4 e & a   1 e & a 2 e & a 3 e & a 4 e & a

G|---------------------------------|---------------------------------|
D|---------------------------------|---------------------------------|
A|---------------------------------|---------------------------------|
E|-4h5---------4h5-----------------|-4h5---------4h5-----------------|
   1 e & a 2 e & a 3 e & a 4 e & a   1 e & a 2 e & a 3 e & a 4 e & a

G|---------------------------------||
D|---------------------------------||
A|---------------------------------||
E|-4h5---------4h5-----------------||
   1 e & a 2 e & a 3 e & a 4 e & a

************************************

| /   slide up
| \   slide down
| h   hammer-on
| p   pull-off
| ~   vibrato
| +   harmonic
| x   Mute note
| b   Bend
| pb  Pre-bend
| br  Bend release
| pbr Pre-bend release
| brb Bend release bend

Almost there ...

Sign in to get your own page with links to favourite songs and more. You are just one click away...

Login with Facebook Login with Google